» » »

A Cauldron Of Hate Bass tabs (ver.1)

Artists:  A B C D E F G H I J K L M N O P Q R S T U V W X Y Z # 

A Cauldron Of Hate Bass tabs (ver.1)

Cannibal Corpse
Rating:
0/5 (0 votes)

Hard to play? Try these video lessons and learn fast.
                ----------------------------------------------------------------------------
  "A Cauldron of Hate" - Cannibal Corpse
----------------------------------------------------------------------------


5 string bass tuned to:
(low to high): Bb Eb Ab Db Gb

(you can play it with a 4 string too just tune right)

RIFF A
----------------------------------------------------|
----------------------------------------------------|
----------------------------------------------------|
----------------------------------------------------|
---3-3-1--0-0--3-0-0--6-0-0--7-7-6--0-8-8--7-0-0-0--|

-------------------------------------------------------|
-------------------------------------------------------|
-------------------------------------------------------|
-------------------------------------------------------|
---6-7-7--10-0--3-3-6--0-0--8-0-0--6-0-0--7-0-0--6-0-0-|

RIFF B
--------------------------------------------------------------------|
--------------------------------------------------------------------|
---3---------------------2---------3--------------------2-----------|
------------2----------1---1-----2---------2----------1---1---1-----|
-----0-1-4----4-2-1--0-------0-1-----0-1-4---4-2-1--0-------3---3-0-|

--------------------------------------------------------------------------|
--------------------------------------------------------------------------|
---------6--9-6--------8---8------9---------------------------------------|
---8-7-8--------9-7--7---7----7-8-----------------------------------------|
-------------------------------------0-1-1--2-0--4-4-2--0-4-4--6-0--7-7-6-|

RIFF C
--------------------------------------------------------------------------|
--------------------------------------------------------------------------|
--------------------------------------------------------------------------|
----------------3---6-----------------------------------------------------|
---3-0-3-0--6-0---5---5-3-6--3-0-1-0--3-0-0-0--0-0-0-6--5-3-0-6--0-0-0-0--|

RIFF D
-----------------------------------------------------------|
-----------------------------------------------------------|
-----------------------------------------------------------|
-----------------------------------------------------------|
---0-6-6-0--5-5-2--0-6-6--9-0-0-0--0-6-6-0--9-0-0--12-0-0--|

-----------------------------------------------------------------------|
-----------------------------------------------------------------------|
-----------------------------------------------------------------------|
-----------------------------------------------------------------------|
---0-6-6-0--5-5-2--0-6--9-0-0--9-0-0--11-0-0--12-0-0--14-0-0--14-11-11-|

-----------------------------------------------------------|
-----------------------------------------------------------|
-----------------------------------------------------------|
-----------------------------------------------------------|
---0-6-6-0--5-5-2--0-6-6--9-0-0-0--0-6-6-0--9-0-0--12-0-0--|

----------------------------------------------------------------|
----------------------------------------------------------------|
----------------------------------------------------------------|
----------------------------------------------------------------|
---0-14-14--11-0--12-12-9--0-9-9--6-0--5-5-2--0-0-0-0--0-0-6-6--|

RIFF E
----------------------------------------------------------------------------|
------------------------------------------------15-13-----15-13----17-13----|
---------------------------------------14-15-16--------14-------14-------14-|
---4--3----------------------13-15-16---------------------------------------|
---------2--1---0--13-14-16-------------------------------------------------|

------|
------|
------|
---13-|
------|

RIFF F
-----------------------------------------------------------|
-----------------------------------------------------------|
-----------------------------------------------------------|
-----------------------------------------------------------|
---6-0-0--3-0-0--6-0-0--6-0-0--3-0-0--6-0-0--3-0-0--9-0-0--|

--------------------------------------------------------------|
--------------------------------------------------------------|
--------------------------------------------------------------|
-----------------------------------------------7-8-10--8-7----|
---6-0-0--3-0-0--6-7-9--7-9-10--6-7-9--7-9-10--------------10-|

RIFF G
-----------------------------------------------------------------|
-----------------------------------------------------------------|
-----------------------------------------------------------------|
-----------------------------------------------------------------|
---6-0-0--3-0-0--6-0-0--9-0--0-0-6-0--0-9/10\9/10\9/10--0-0-0-0--|

-----------------------------------------------------|
-----------------------------------------------------|
-----------------------------------------------------|
-----------------------------------------------------|
---6-0-0--3-0-0--6-0-0-3--0-0-6-0--0-7-0-9--0-0-0-0--|

---------------------------------------------------------------------------|
---------------------------------------------------------------------------|
---------------------------------------------------------------------------|
---------------------------------------------------------------------------|
---6-0-0--3-0-0--3-1-0-0--6-3-0-6--0-9-0-13/--10-12\-9-0--10-\9/10\9--0-0--|

------------|
------------|
------------|
------------|
---0-0-0-0--|

RIFF H
-----------------------------|
-----------------------------|
-----------------------------|
-----------------------------|
---0-6-6-0--5-5-2--0-6-6--9--|

This song was a b**ch to tab! haha anyway hope you like it

an for all you who play both bass and guitar, ill have the guitar tab for this up soon 
at least the solo
            
Hard to play? Try these video lessons and learn fast. | Correct




comments powered by Disqus
↑ Back to top | Tablatures and chords are parodies/interpretations of the original songs. You may use it for private study, scholarship, research or language learning purposes only