>
 >
A Cauldron Of Hate

A Cauldron Of Hate Guitar Tabs

Cannibal Corpse - A Cauldron Of Hate chords, tabs, tablatures, lyrics

Guitar lessons | Add/correct | Request | Top 50 tabs Artists:  A B C D E F G H I J K L M N O P Q R S T U V W X Y Z 0-9

A Cauldron Of Hate Guitar Tabs – Cannibal Corpse

CD, Sheet music, Poster

Do you like A Cauldron Of Hate? Share with your friends now
Bass TabsTabsTabs v2Tabs v3
-------------------------------------------------------------------------------
                           "A Cauldron of Hate" --- Cannibal Corpse
-------------------------------------------------------------------------------



Tuning: Bb Eb Ab Db F Bb (low to high)


*This song has a lot of 32nd notes and 16th notes combined, so
 use a lot of alternative picking, and fast picking in this song.
 Good luck. *


Legend:

... = palm mute
h = hammer on
p = pull off
b = bend
! = tremelo pick
/ = slide up
\ = slide down
h/ = pick once
p\ = pick once
* = pinch harmonic
__ = hold bend
.5 = half step bend
1 = whole step bend
1.5 = step and a half bend
() = note not picked / bent note back to normal


========================
Intro:

Guitars 1 and 2:
Bb|------------------------------------------|
F |------------------------------------------|
Db|------------------------------------------|
Ab|----------------------44-3---55-4---------| x3
Eb|-55-3-----------------22-1---33-2---------|
Bb|-33-1-0-0-3-0-0-6-0-0------0------0-0-0-0-|
    ........................................

========================
Guitars 1 and 2:
Bb|--------------------------------------------|
F |--------------------------------------------|
Db|--------------------------------------------|
Ab|--------------------------------------------|
Eb|--------------------------------------------|
Bb|-6-77-10-0-33-6-0-0-8-0-0-6-0-0-7-0-0-6-0-0-|
    ..........................................

========================
Guitars 1 and 2:
Bb|------------------------------------------|
F |------------------------------------------|
Db|------------------------------------------|
Ab|----------------------44-3---55-4---------| x3
Eb|-55-3-----------------22-1---33-2---------|
Bb|-33-1-0-0-3-0-0-6-0-0------0------0-0-0-0-|
    ........................................

========================
Guitars 1 and 2:
Bb|--------------------------------------------|
F |--------------------------------------------|
Db|--------------------------------------------|
Ab|--------------------------------------------|
Eb|--------------------------------------------|
Bb|-6-77-10-0-33-6-0-0-8-0-0-6-0-0-7-0-0-6-0-0-|
    ..........................................

End of Intro.
=========================
Verse 1:

Guitars 1 and 2:

Bb|-------------------------------------------------------------------------------|
F |-------------------------------------------------------------------------------|
Db|-------------------------------------------------------------------------------|
Ab|----------------------44-3---55-4----------------------------44-3---55-4-------|
Eb|-55-3-----------------22-1---33-2-------55-3-----------------22-1---33-2-------|
Bb|-33-1-0-0-3-0-0-6-0-0------0------0-0-0-33-1-0-0-3-0-0-6-0-0------0------0-0-0-|
    .............................................................................

=========================
Guitars 1 and 2:
Bb|-----------------------------------------------------------------------------------|
F |-----------------------------------------------------------------------------------|
Db|-----------------------------------------------------------------------------------|
Ab|----------------------44-3---55-4--------------------------------------------------|
Eb|-55-3-----------------22-1---33-2--------------------------------------------------|
Bb|-33-1-0-0-3-0-0-6-0-0------0------0-0-0-6-77-10-0-33-6-0-0-8-0-0-6-0-0-7-0-0-6-0-0-|
    .................................................................................

=========================
Guitars 1 and 2:

Bb|-------------------------------------------------------------------------------|
F |-------------------------------------------------------------------------------|
Db|-------------------------------------------------------------------------------|
Ab|----------------------44-3---55-4----------------------------44-3---55-4-------|
Eb|-55-3-----------------22-1---33-2-------55-3-----------------22-1---33-2-------|
Bb|-33-1-0-0-3-0-0-6-0-0------0------0-0-0-33-1-0-0-3-0-0-6-0-0------0------0-0-0-|
    .............................................................................

=========================
Guitars 1 and 2:
Bb|-----------------------------------------------------------------------------------|
F |-----------------------------------------------------------------------------------|
Db|-----------------------------------------------------------------------------------|
Ab|----------------------44-3---55-4--------------------------------------------------|
Eb|-55-3-----------------22-1---33-2--------------------------------------------------|
Bb|-33-1-0-0-3-0-0-6-0-0------0------0-0-0-6-77-10-0-33-6-0-0-8-0-0-6-0-0-7-0-0-6-0-0-|
    .................................................................................

End of Verse 1.
==========================
Chorus 1:

Guitars 1 and 2:
Bb|-----------------------------------------------------------------------------------------|
F |-----------------------------------------------------------------------------------------|
Db|-----------------------------------------------------------------------------------------|
Ab|------------------------------4---------66666666--------4444-----------------------------|
Eb|-8888888888888888---------2-3-2-88888888--------------------77778888888888888888---------|
Bb|-----------------00006666-0-1-------------------00006666------------------------00006666-|
                             .....

==========================
Guitars 1 and 2:
Bb|-----------------------------------|
F |-----------------------------------|
Db|-----------------------------------|
Ab|-----4-----------------------------|
Eb|-2-3-2---33-4---66-4---66-8---99-8-|
Bb|-0-1---0-11-2-0-44-2-0-44-6-0-77-6-|
    .................................

==========================
Guitars 1 and 2:
Bb|-----------------------------------------------------------------------------------------|
F |-----------------------------------------------------------------------------------------|
Db|-----------------------------------------------------------------------------------------|
Ab|------------------------------4---------66666666--------4444-----------------------------|
Eb|-8888888888888888---------2-3-2-88888888--------------------77778888888888888888---------|
Bb|-----------------00006666-0-1-------------------00006666------------------------00006666-|
                             .....

==========================
Guitars 1 and 2:
Bb|-----------------------------------|
F |-----------------------------------|
Db|-----------------------------------|
Ab|-----4-----------------------------|
Eb|-2-3-2---33-4---66-4---66-8---99-8-|
Bb|-0-1---0-11-2-0-44-2-0-44-6-0-77-6-|
    .................................

End of Chorus 1.
===========================
Break 1:

Guitars 1 and 2:
Bb|-----------------------------------------------------------------|
F |-----------------------------------------------------------------|
Db|-----------------------------------------------------------------|
Ab|-----------------------------------------------------------------| x2
Eb|-----------------6-----------------------------------------------|
Bb|-3-0-3-0-6-0-8-5---5-3-6-3-0-1-0-3-0-0-0-0-0-0-6-5-3-0-6-0-0-0-0-|
    ...............................................................

End of Break 1.
===========================
Verse 2:

Guitars 1 and 2:

Bb|-------------------------------------------------------------------------------|
F |-------------------------------------------------------------------------------|
Db|-------------------------------------------------------------------------------|
Ab|----------------------44-3---55-4----------------------------44-3---55-4-------|
Eb|-55-3-----------------22-1---33-2-------55-3-----------------22-1---33-2-------|
Bb|-33-1-0-0-3-0-0-6-0-0------0------0-0-0-33-1-0-0-3-0-0-6-0-0------0------0-0-0-|
    .............................................................................

=========================
Guitars 1 and 2:
Bb|-----------------------------------------------------------------------------------|
F |-----------------------------------------------------------------------------------|
Db|-----------------------------------------------------------------------------------|
Ab|----------------------44-3---55-4--------------------------------------------------|
Eb|-55-3-----------------22-1---33-2--------------------------------------------------|
Bb|-33-1-0-0-3-0-0-6-0-0------0------0-0-0-6-77-10-0-33-6-0-0-8-0-0-6-0-0-7-0-0-6-0-0-|
    .................................................................................

=========================
Guitars 1 and 2:

Bb|-------------------------------------------------------------------------------|
F |-------------------------------------------------------------------------------|
Db|-------------------------------------------------------------------------------|
Ab|----------------------44-3---55-4----------------------------44-3---55-4-------|
Eb|-55-3-----------------22-1---33-2-------55-3-----------------22-1---33-2-------|
Bb|-33-1-0-0-3-0-0-6-0-0------0------0-0-0-33-1-0-0-3-0-0-6-0-0------0------0-0-0-|
    .............................................................................

=========================
Guitars 1 and 2:
Bb|-----------------------------------------------------------------------------------|
F |-----------------------------------------------------------------------------------|
Db|-----------------------------------------------------------------------------------|
Ab|----------------------44-3---55-4--------------------------------------------------|
Eb|-55-3-----------------22-1---33-2--------------------------------------------------|
Bb|-33-1-0-0-3-0-0-6-0-0------0------0-0-0-6-77-10-0-33-6-0-0-8-0-0-6-0-0-7-0-0-6-0-0-|
    .................................................................................

End of Verse 2.
==========================
Chorus 2:

Guitars 1 and 2:
Bb|-----------------------------------------------------------------------------------------|
F |-----------------------------------------------------------------------------------------|
Db|-----------------------------------------------------------------------------------------|
Ab|------------------------------4---------66666666--------4444-----------------------------|
Eb|-8888888888888888---------2-3-2-88888888--------------------77778888888888888888---------|
Bb|-----------------00006666-0-1-------------------00006666------------------------00006666-|
                             .....

==========================
Guitars 1 and 2:
Bb|-----------------------------------|
F |-----------------------------------|
Db|-----------------------------------|
Ab|-----4-----------------------------|
Eb|-2-3-2---33-4---66-4---66-8---99-8-|
Bb|-0-1---0-11-2-0-44-2-0-44-6-0-77-6-|
    .................................

==========================
Guitars 1 and 2:
Bb|-----------------------------------------------------------------------------------------|
F |-----------------------------------------------------------------------------------------|
Db|-----------------------------------------------------------------------------------------|
Ab|------------------------------4---------66666666--------4444-----------------------------|
Eb|-8888888888888888---------2-3-2-88888888--------------------77778888888888888888---------|
Bb|-----------------00006666-0-1-------------------00006666------------------------00006666-|
                             .....

==========================
Guitars 1 and 2:
Bb|-----------------------------------|
F |-----------------------------------|
Db|-----------------------------------|
Ab|-----4-----------------------------|
Eb|-2-3-2---33-4---66-4---66-8---99-8-|
Bb|-0-1---0-11-2-0-44-2-0-44-6-0-77-6-|
    .................................

End of Chorus 2.
===========================
Break 2:

Guitars 1 and 2:
Bb|------------------------------------------------------------------|
F |------------------------------------------------------------------|
Db|------------------------------------------------------------------|
Ab|------------------------------------------------------------------|
Eb|-------------------4---------------4-----7----------------------4-|
Bb|-0-6-6-0-55-2-0-66---0-0-0-0-6-6-0---0-0---0-0-0-6-6-0-55-2-0-6---|
    ................................................................

============================
Guitars 1 and 2:
Bb|---------------------------------------------------------------------------------|
F |---------------------------------------------------------------------------------|
Db|---------------------------------------------------------------------------------|
Ab|---------------------------------------------------------------------------------|
Eb|-----4-----6-----7-----9-----9-6-6-------------------4---------------4-----7-----|
Bb|-0-0---0-0---0-0---0-0---0-0-------0-6-6-0-55-2-0-66---0-0-0-0-6-6-0---0-0---0-0-|
    ...............................................................................

============================
Guitars 1 and 2:
Bb|---------------------------------------------|
F |---------------------------------------------|
Db|---------------------------------------------|
Ab|---------------------------------------------|
Eb|---99-6---77-4-------------------------------|
Bb|-0------0------0-99-6-0-55-2-0-0-0-0-0-0-6-6-|
    ...........................................

============================
Guitars 1 and 2:
Bb|------------------------------------------------------------------|
F |------------------------------------------------------------------|
Db|------------------------------------------------------------------|
Ab|------------------------------------------------------------------|
Eb|-------------------4---------------4-----7----------------------4-|
Bb|-0-6-6-0-55-2-0-66---0-0-0-0-6-6-0---0-0---0-0-0-6-6-0-55-2-0-6---|
    ................................................................

============================
Guitars 1 and 2:
Bb|---------------------------------------------------------------------------------|
F |---------------------------------------------------------------------------------|
Db|---------------------------------------------------------------------------------|
Ab|---------------------------------------------------------------------------------|
Eb|-----4-----6-----7-----9-----9-6-6-------------------4---------------4-----7-----|
Bb|-0-0---0-0---0-0---0-0---0-0-------0-6-6-0-55-2-0-66---0-0-0-0-6-6-0---0-0---0-0-|
    ...............................................................................

============================
Guitars 1 and 2:
Bb|---------------------------------------------|
F |---------------------------------------------|
Db|---------------------------------------------|
Ab|---------------------------------------------|
Eb|---99-6---77-4-------------------------------|
Bb|-0------0------0-99-6-0-55-2-0-0-0-0-0-0-6-6-|
    ...........................................

============================
Guitar 1:
Bb|--------------------------------------------|
F |--------------------------------------------|
Db|-6~~~~-5~~~~--------------------------3-----|
Ab|-x-----x-----4~~~~-3~~~~-2~~~~~~~~~~--x-----|
Eb|-4~~~~-3~~~~-x-----x-----x------------1-----|
Bb|-------------2~~~~-1~~~~-0~~~~~~~~~~--------|

Guitar 2:
Bb|--------------------------------------------|
F |--------------------------------------------|
Db|-6~~~~-5~~~~--------------------------3-----|
Ab|-x-----x-----4~~~~-6~~~~-2~~~~~~~~~~--x-----|
Eb|-4~~~~-3~~~~-x-----x-----x------------1-----|
Bb|-------------2~~~~-4~~~~-0~~~~~~~~~~--------|

============================
"Die!"

Guitars 1 and 2:
Bb|-------------------------------------------------|
F |-------------------------------------------------|
Db|-------------------------------------------------|
Ab|-------------------------------------------------| x3
Eb|-------------------------------------------------|
Bb|-6-0-0-3-0-0-6-0-0-6-0-0-3-0-0-6-0-0-3-0-0-9-0-0-|
    ...............................................

=============================
Guitars 1 and 2:
Bb|-----------------------------------------------------|
F |-----------------------------------------------------|
Db|-----------------------------------------------------|
Ab|-----------------------------------------------------|
Eb|---------------------------------------7-8-10-8-7----|
Bb|-6-0-0-3-0-0-6-7-9-7-9-10-6-7-9-7-9-10------------10-|
    ...................................................

=============================
Guitars 1 and 2:
Bb|-------------------------------------------------|
F |-------------------------------------------------|
Db|-------------------------------------------------|
Ab|-------------------------------------------------| x3
Eb|-------------------------------------------------|
Bb|-6-0-0-3-0-0-6-0-0-6-0-0-3-0-0-6-0-0-3-0-0-9-0-0-|
    ...............................................

=============================
Guitars 1 and 2:
Bb|-----------------------------------------------------|
F |-----------------------------------------------------|
Db|-----------------------------------------------------|
Ab|-----------------------------------------------------|
Eb|---------------------------------------7-8-10-8-7----|
Bb|-6-0-0-3-0-0-6-7-9-7-9-10-6-7-9-7-9-10------------10-|
    ...................................................

End of Break 2.
=============================
Guitars 1 and 2:
Bb|------------------------------------------------------------------------|
F |------------------------------------------------------------------------|
Db|-------------------6-------3-----6h/7p\6h/7p\6h/7---------------------3-|
Ab|-------------------x-------x-----x--x--x--x--x--x---------------------x-|
Eb|-------------------4-------1-----4h/5p\4h/5p\4h/5---------------------1-|
Bb|-6-0-0-3-0-0-6-0-0---0-0-0---0-0------------------0-0-0-0-6-0-0-3-0-0---|
    .................   .....   ...                  ...................

=============================
Guitars 1 and 2:
Bb|--------------------------------------------------------------------------------|
F |--------------------------------------------------------------------------------|
Db|-----------3-----4---6---------------------------6-------3-----6h/7p\6h/7p\6h/7-|
Ab|-----5-----x-----x---x---------------------------x-------x-----x--x--x--x--x--x-|
Eb|-----x-----1-----2---4---------------------------4-------1-----4h/5p\4h/5p\4h/5-|
Bb|-0-0-3-0-0---0-0---0---0-0-0-0-6-0-0-3-0-0-6-0-0---0-0-0---0-0------------------|
    ...   ...   ...   .   .........................   .....   ...

=============================
Guitars 1 and 2:
Bb|------------------------------------------------------------------|
F |------------------------------------------------------------------|
Db|-----------------------------------3---6---10p\7-9p\6-------------|
Ab|---------------------5-3-----8-5---x---x----x--x-x--x-------------|
Eb|---------------------x-x-----x-x---1---4----8p\5-7p\4-------------|
Bb|-0-0-0-0-6-0-0-3-0-0-3-1-0-0-6-3-0---0---0------------0-0-0-0-0-0-|
    ...................     ...     .   .   .            ...........

==============================
Guitars 1 and 2:
Bb|------------------------------------------------------------------------|
F |------------------------------------------------------------------------|
Db|-------------------6-------3-----6h/7p\6h/7p\6h/7---------------------3-|
Ab|-------------------x-------x-----x--x--x--x--x--x---------------------x-|
Eb|-------------------4-------1-----4h/5p\4h/5p\4h/5---------------------1-|
Bb|-6-0-0-3-0-0-6-0-0---0-0-0---0-0------------------0-0-0-0-6-0-0-3-0-0---|
    .................   .....   ...                  ...................

=============================
Guitars 1 and 2:
Bb|--------------------------------------------------------------------------------|
F |--------------------------------------------------------------------------------|
Db|-----------3-----4---6---------------------------6-------3-----6h/7p\6h/7p\6h/7-|
Ab|-----5-----x-----x---x---------------------------x-------x-----x--x--x--x--x--x-|
Eb|-----x-----1-----2---4---------------------------4-------1-----4h/5p\4h/5p\4h/5-|
Bb|-0-0-3-0-0---0-0---0---0-0-0-0-6-0-0-3-0-0-6-0-0---0-0-0---0-0------------------|
    ...   ...   ...   .   .........................   .....   ...

=============================
Guitars 1 and 2:
Bb|------------------------------------------------------------------|
F |------------------------------------------------------------------|
Db|-----------------------------------3---6---10p\7-9p\6-------------|
Ab|---------------------5-3-----8-5---x---x----x--x-x--x-------------|
Eb|---------------------x-x-----x-x---1---4----8p\5-7p\4-------------|
Bb|-0-0-0-0-6-0-0-3-0-0-3-1-0-0-6-3-0---0---0------------0-0-0-0-0-0-|
    ...................     ...     .   .   .            ...........

=============================
Guitar Solo:

Guitar 3:
Bb|------------------------------------------------------|
F |------------------------------------------------------|
Db|-------3~~~~-9~~-10p\9p\8~~--8h/9--14~~~~-14h/15~~~~~-|
Ab|-5~~~~-x-----x-----x-x--x----x--x---x------x---x------|
Eb|-x-----1~~~~-7~~--8p\7p\6~~--6h/7--12~~~~-12h/13~~~~~-|
Bb|-3~~~~------------------------------------------------|

Guitar 3:
Bb|-----------------------------------------------------13-15p13p11~~~11h12-------|
F |-------------------13h15p13p11---11-13h15p13p11-0-11--------------------11-11!-|
Db|-12h14p12--------15------------13---------------0------------------------------|
Ab|---------15-13-15--------------------------------------------------------------|
Eb|-------------------------------------------------------------------------------|
Bb|-------------------------------------------------------------------------------|

Guitar 3:
Bb|-----------------------12---------------------------------------20-19-18-18!-18!-18p\-|
F |-11!-15-13-12-11h/13-15--15-11h/13-15-13-12\10--------/18-17-15-----------------------|
Db|--------------------------------------------------------------------------------------|
Ab|--------------------------------------------------------------------------------------|
Eb|----------------------------------------------19!--19!--------------------------------|
Bb|--------------------------------------------------------------------------------------|

Guitar 3:
Bb|----------------------------------------------------------------------------------|
F |-11h12p11h12p11h12p11h12p11-------12h13p12h13p12h13-10-8-10-0h6h8h10p8p6h8p6p\5~~~|
Db|---------------------------10-0---------------------------------------------------|
Ab|----------------------------------------------------------------------------------|
Eb|----------------------------------------------------------------------------------|
Bb|----------------------------------------------------------------------------------|

Guitar 3:
Bb|---------6~~~~~-----------------------------------------------------|
F |-6p5p3p0------------------------------------------------------------|
Db|-----------------------------------------------------------9--------|
Ab|------------------------------------------8---------8-9-10---10-8-9-|
Eb|----------------------------7------7-8-10---10-8-10-----------------|
Bb|---------------/12p\-6-8-10---10-8----------------------------------|
                        ..............................................

Guitar 3:
Bb|-------------------------------12----------------12-------------12-13-15p13p12----------|
F |----------------------11-12-13----13-12-11-12-13----13-12-12-13----------------13-11-13-|
Db|----12-12-14-12-11-12-------------------------------------------------------------------|
Ab|----------------------------------------------------------------------------------------|
Eb|----------------------------------------------------------------------------------------|
Bb|----------------------------------------------------------------------------------------|
       ...........................................................                ........

Guitar 3:
Bb|-12-12-15p13p12----------15-15-18p15----------15-18-20p18p15-------14-15-18-20p18-------|
F |----------------14-11-14-------------17-15-17----------------17-18----------------20-17-|
Db|----------------------------------------------------------------------------------------|
Ab|----------------------------------------------------------------------------------------|
Eb|----------------------------------------------------------------------------------------|
Bb|----------------------------------------------------------------------------------------|
                   ........             ........           

Guitar 3:
Bb|-15-17-19-20p18---------------------------------------------------------------------|
F |----------------20-19-18-17-18h20p18~~-17-15h17p15-------15h18p15----------15h20p15-|
Db|---------------------------------------------------17-15----------17-15-17----------|
Ab|------------------------------------------------------------------------------------|
Eb|------------------------------------------------------------------------------------|
Bb|------------------------------------------------------------------------------------|

Guitar 3:
Bb|-----------------------------------------------------|
F |----------15h18p15----------15h17p15-------17~~~~~~~~|
Db|-17-15-17----------17-15-17----------17-18-----------|
Ab|-----------------------------------------------------|
Eb|-----------------------------------------------------|
Bb|-----------------------------------------------------|

---------
---------
Rhythm For Guitar Solo:

Guitars 1 and 2:
Bb|-----------------------------------------------------------------|
F |-----------------------------------------------------------------|
Db|-----------------------------------------------------------------|
Ab|-----------------------------------------------------------------| x2
Eb|-----------------6-----------------------------------------------|
Bb|-3-0-3-0-6-0-8-5---5-3-6-3-0-1-0-3-0-0-0-0-0-0-6-5-3-0-6-0-0-0-0-|
    ...............................................................

Guitars 1 and 2:
Bb|------------------------------------------|
F |------------------------------------------|
Db|------------------------------------------|
Ab|----------------------44-3---55-4---------| x3
Eb|-55-3-----------------22-1---33-2---------|
Bb|-33-1-0-0-3-0-0-6-0-0------0------0-0-0-0-|
    ........................................


Guitars 1 and 2:
Bb|--------------------------------------------|
F |--------------------------------------------|
Db|--------------------------------------------|
Ab|--------------------------------------------|
Eb|--------------------------------------------|
Bb|-6-77-10-0-33-6-0-0-8-0-0-6-0-0-7-0-0-6-0-0-|
    ..........................................


Guitars 1 and 2:
Bb|------------------------------------------|
F |------------------------------------------|
Db|------------------------------------------|
Ab|----------------------44-3---55-4---------| x3
Eb|-55-3-----------------22-1---33-2---------|
Bb|-33-1-0-0-3-0-0-6-0-0------0------0-0-0-0-|
    ........................................


Guitars 1 and 2:
Bb|--------------------------------------------|
F |--------------------------------------------|
Db|--------------------------------------------|
Ab|--------------------------------------------|
Eb|--------------------------------------------|
Bb|-6-77-10-0-33-6-0-0-8-0-0-6-0-0-7-0-0-6-0-0-|
    ..........................................

End of Guitar Solo.
=====================================================
Chorus 3:

Guitars 1 and 2:
Bb|-----------------------------------------------------------------------------------------|
F |-----------------------------------------------------------------------------------------|
Db|-----------------------------------------------------------------------------------------|
Ab|------------------------------4---------66666666--------4444-----------------------------|
Eb|-8888888888888888---------2-3-2-88888888--------------------77778888888888888888---------|
Bb|-----------------00006666-0-1-------------------00006666------------------------00006666-|
                             .....

==========================
Guitars 1 and 2:
Bb|-----------------------------------|
F |-----------------------------------|
Db|-----------------------------------|
Ab|-----4-----------------------------|
Eb|-2-3-2---33-4---66-4---66-8---99-8-|
Bb|-0-1---0-11-2-0-44-2-0-44-6-0-77-6-|
    .................................

==========================
Guitars 1 and 2:
Bb|-----------------------------------------------------------------------------------------|
F |-----------------------------------------------------------------------------------------|
Db|-----------------------------------------------------------------------------------------|
Ab|------------------------------4---------66666666--------4444-----------------------------|
Eb|-8888888888888888---------2-3-2-88888888--------------------77778888888888888888---------|
Bb|-----------------00006666-0-1-------------------00006666------------------------00006666-|
                             .....

==========================
Guitars 1 and 2:
Bb|-----------------------------------|
F |-----------------------------------|
Db|-----------------------------------|
Ab|-----4-----------------------------|
Eb|-2-3-2---33-4---66-4---66-8---99-8-|
Bb|-0-1---0-11-2-0-44-2-0-44-6-0-77-6-|
    .................................

End of Chorus 3.
=========================
Outro:

Guitars 1 and 2: Those are 1s.
Bb|-------------------------------------------------------------------------|
F |-------------------------------------------------------------------------|
Db|-------------------------------------------------------------------------|
Ab|------------------------------4------------------------------------------|
Eb|--------------------------2-3-2------------------------------------------|
Bb|-111111111111111100006666-0-1---1111111144444444000066662222000011111111-|
                             .....

===========================
Guitars 1 and 2: Those are 1s.
Bb|----------------------------------------------------|
F |----------------------------------------------------|
Db|----------------------------------------------------|
Ab|----------------------4-----------------------------|
Eb|------------------2-3-2---33-4---66-4---66-8---99-8-|
Bb|-1111111100006666-0-1---0-11-2-0-44-2-0-44-6-0-77-6-|
                     .................................

===========================
Guitars 1 and 2: Those are 1s.
Bb|-------------------------------------------------------------------------|
F |-------------------------------------------------------------------------|
Db|-------------------------------------------------------------------------|
Ab|------------------------------4------------------------------------------|
Eb|--------------------------2-3-2------------------------------------------|
Bb|-111111111111111100006666-0-1---1111111144444444000066662222000011111111-|
                             .....

===========================
Guitars 1 and 2: Those are 1s.
Bb|----------------------------------------------------|
F |----------------------------------------------------|
Db|----------------------------------------------------|
Ab|----------------------4-----------------------------|
Eb|------------------2-3-2---33-4---66-4---66-8---99-8-|
Bb|-1111111100006666-0-1---0-11-2-0-44-2-0-44-6-0-77-6-|
                     .................................


============================
Guitars 1 and 2:
 Keep playing this until the song finishes.
Bb|-----------------------------------------|
F |-----------------------------------------|
Db|-----------------------------------------|
Ab|-----------------------------------------|
Eb|-----------------------------------------|
Bb|-0-6-6-9-55-2-0-66-9-0-6-6-9-55-2-0-66-9-|
    .......................................

That's It.

Please Rate and Comment It.
Thanks.
[travis]





Comments


Popular Cannibal Corpse tabs & chords
Decency Defied Bass Tabs
Disposal Of The Body 3 Bass Tabs
Blood Drenched Execution Tabs
Dormant Bodies Bursting 1 Tabs
Encased In Concrete Tabs
Headless 1 Tabs
Smoke On The Water Tabs
The Cryptic Stench Tabs
Worm Infested 1 Tabs
Zero The Hero 1 Tabs


Song lyrics



↑ Back to top | Tablatures and chords are parodies/interpretations of the original songs. You may use it for private study, scholarship, research or language learning purposes only
© 2014 AZChords.com Contact us | Privacy policy | DMCA | Add/correct tabs | Request tabs | Top 50 tabs