» » »

Candlebox, Stand Tabs (ver.2)

Artists:  A B C D E F G H I J K L M N O P Q R S T U V W X Y Z # 

Stand Tabs (ver.2)

Candlebox Tabs
Rating:
4/5 (2 votes)
Hard to play? Try these video lessons and learn fast.
                -------------------------------------------------------------------------------
-------------------------------------------------------------------------------

Tuning: EADGBE


Intro (muted):
e|-------------------------------------------8-------------------------------|
B|-------------------------------------------12------------------------------|
G|-----2-2-4-2-------2-2-4-2---2-2-5-5-4-5-0-10------------------------------|
D|-4-4---------2-4-4---------4---------------10------------------------------|
A|-------------------------------------------8-------------------------------|
E|---------------------------------------------------------------------------|


e|---------------------------------------------------------------------------|
B|---------------------------------------------------------------------------|
G|---------------------------------------------------------------------------|
D|-------2---------2---------------------------------------------------------|
A|---4-4-0-4-4-4-4-0-4-3-2-0-------------------------------------------------|(x2)
E|-0-2-2---2-2-2-2---2-------------------------------------------------------|

Verse:
e|---------------------------------------------------------------------------|
B|---------------------------------------------------------------------------|
G|---------------------------------------------------------------------------|
D|-------------------7-7-6---------------------------------------------------|
A|---4-4---4-4---4-4-5-5-4---------------------------------------------------|(x2)
E|-0-2-2-0-2-2-0-2-2---------------------------------------------------------|
   Aaaaaaaaaaaaaaaaa
e|---------------------------------------------------------------------------|
B|---------------------------------------------------------------------------|
G|-----2-2-4-2-------2-2-4-2---2-2-5-4-5-0-2-2-5-4-5-0-----------------------|
D|-4-4---------2-4-4---------4-----------------------------------------------|
A|---------------------------------------------------------------------------|
E|---------------------------------------------------------------------------|
   Hey is there something...   Can you speak a little bit louder. Just
   wait listen close to ...    find It gets harder to swallow their lies

e|---------------------------------------------------------------------------|
B|---------------------------------------------------------------------------|
G|---------------------------------------------------------------------------|
D|-------------------7-7-6---------------------------------------------------|
A|---4-4---4-4---4-4-5-5-4---------------------------------------------------|
E|-0-2-2-0-2-2-0-2-2---------------------------------------------------------|

e|---------------------------------------------------------------------------|
B|---------------------------------------------------------------------------|
G|-----2-2-4-2-------2-2-4-2---2-2-5-4-5-0-2-2-5-4-5-0-----------------------|
D|-4-4---------2-4-4---------4-----------------------------------------------|
A|---------------------------------------------------------------------------|
E|---------------------------------------------------------------------------|
   Stay all they ask is you... fools Yes you’ve made it so far so you 
   play Bring you friends to.. recruit it'll take you much further

e|---------------------------------------------------------------------------|
B|---------------------------------------------------------------------------|
G|---------------------------------------------------------------------------|
D|---------------------------------------------------------------------------|
A|---4-4---4-4---4-4---4-4---7-7---7-7---7-7---7-7---------------------------|(x2)
E|-0-2-2-0-2-2-0-2-2-0-2-2-4-5-5-4-5-5-4-5-5-4-5-5---------------------------|
   Oh this is your way     all your cunning destruction
   No we cannot          stay we'll say f**k your consumption

Chorus:
e|---------------------------------------------------------------------------|
B|---------------------------------------------------------------------------|
G|---------------------------------------------------------------------------|
D|--------------------------7------------4------------------9----------------|
A|-4------------------------5------------2------------------7-----7----------|
E|-2--------------------------------------------------------------5----------|
   If I stood for you and I bled for you would you come and save me
   If we took a chance      did it all...Would you run...  stand

Verse:
e|---------------------------------------------------------------------------|
B|---------------------------------------------------------------------------|
G|---------------------------------------------------------------------------|
D|-----------------2---------------------------------------------------------|
A|---4-4---4-4-4-4-0-4-3-2-0-------------------------------------------------|(x2)
E|-0-2-2-0-2-2-2-2---2-------------------------------------------------------|
   Aaaaaaaaaaaaaaa
e|---------------------------------------------------------------------------|
B|---------------------------------------------------------------------------|
G|-----2-2-4-2-------2-2-4-2---2-2-5-4-5-0-2-2-5-4-5-0-----------------------|
D|-4-4---------2-4-4---------4-----------------------------------------------|
A|---------------------------------------------------------------------------|
E|---------------------------------------------------------------------------|
  So you prey on the....       zoo All the weak and unknowing
  Just play you can mold...    rules We must break the bad habits

e|---------------------------------------------------------------------------|
B|---------------------------------------------------------------------------|
G|---------------------------------------------------------------------------|
D|---------------------------------------------------------------------------|
A|---4-4---4-4---4-4---4-4---7-7---7-7---7-7---7-7---------------------------|(x2)
E|-0-2-2-0-2-2-0-2-2-0-2-2-4-5-5-4-5-5-4-5-5-4-5-5---------------------------|
   Oh this is your way     all your cunning destruction
   No we cannot          stay we'll save f**kk your consumption

Chorus:
e|---------------------------------------------------------------------------|
B|---------------------------------------------------------------------------|
G|---------------------------------------------------------------------------|
D|--------------------------7------------4------------------9----------------|
A|-4------------------------5------------2------------------7-----7----------|
E|-2--------------------------------------------------------------5----------|
   If I stood for you and I bled for you would you come and save me
   If we took a chance      did it all...Would you run...  stand


Bridge:
e|---------------------------------------------------------------------------|
B|-------------------------2-------------------------------------------------|
G|-------------------------2-------------------------------------------------|
D|-------------------------2-------------------------------------------------|
A|---4-4---4-4---4-4---4-4-0------0-0-2-0-3-2-0------------------------------|
E|-0-2-2-0-2-2-0-2-2-0-2-2----0-0--------------------------------------------|

Solo: (play chorus)

Chorus:
e|---------------------------------------------------------------------------|
B|---------------------------------------------------------------------------|
G|---------------------------------------------------------------------------|
D|--------------------------7------------4------------------9----------------|
A|-4------------------------5------------2------------------7-----7----------|
E|-2--------------------------------------------------------------5----------|
   If I stood for you and I bled for you would you come and save me
   If we took a chance      did it all...Would you run...  stand

e|---------------------------------------------------------------------------|
B|---------------------------------------------------------------------------|
G|---------------------------------------------------------------------------|
D|-------2---------2---------------------------------------------------------|
A|---4-4-0-4-4-4-4-0-4-3-2-0-------------------------------------------------|(x4)
E|-0-2-2---2-2-2-2---2-------------------------------------------------------|
    Would you  staaaaaaaaand?


| /  slide up
| \  slide down
| h  hammer-on
| p  pull-off
| ~  vibrato
| +  harmonic
| x  Mute note
===============================================================================
            

comments powered by Disqus
↑ Back to top | Candlebox Tabs for Stand. Lyrics for acoustic guitar and electric guitar. Tablatures and chords are parodies/interpretations of the original songs. You may use it for private study, scholarship, research or language learning purposes only