» » »

Stand Tabs (ver.1)

Artists:  A B C D E F G H I J K L M N O P Q R S T U V W X Y Z # 

Stand Tabs (ver.1)

Candlebox
Rating:
5/5 (1 vote)

Hard to play? Try these video lessons and learn fast.
                (Intro)
Tuning: Standard
Key: . = palm mute

This is the only part of the song I can figure out.

Intro
E-------------------------------7--~~|
B-------0---------0---------0---0--~~|
G----2-2-2-----2-2-2-----5-5-5--5--~~|
D-4-------4-4-------7-7-------7-7--~~|
A------------------------------------|
E------------------------------------|
  .  . . .. .  . . .. .  . . ..

E------------------------------------------|
B------------------------------------------|
G------------------------------------------|
D------------------------------------------|
A------------------0-0-0-2-2-2-3-3-3-2-2-2-|
E-0-2-2--2-5-2-2--2------------------------|
            
Hard to play? Try these video lessons and learn fast. | Correct




comments powered by Disqus
↑ Back to top | Tablatures and chords are parodies/interpretations of the original songs. You may use it for private study, scholarship, research or language learning purposes only