» » »

Sabotage Bass tabs (ver.3)

Artists:  A B C D E F G H I J K L M N O P Q R S T U V W X Y Z # 

Sabotage Bass tabs (ver.3)

Cancer Bats
Rating:
5/5 (4 votes)

Hard to play? Try these video lessons and learn fast.
                Cancer Bats - Sabotage

This is pretty much the entire song apart from small changes in the verse. Enjoy!

Tuning: Drop C (CGCF)

F|-------13-------13-------13-------13-------13~----|
C|--------------------------------------------------| (x5)
G|-13-13----13-13----13-13----13-13----13-13--------|
C|--------------------------------------------------|


F|-------13-------13--------------------6~------|
C|----------------------------------6-----------|
G|-13-13----13-13----13-13------6-8---8---------|
C|-------------------------8-11-----------------|

| /  slide up
| \  slide down
| h  hammer-on
| p  pull-off
| ~  vibrato
| +  harmonic
| x  Mute note
===============================================================================
            
Hard to play? Try these video lessons and learn fast. | Correct




comments powered by Disqus
↑ Back to top | Tablatures and chords are parodies/interpretations of the original songs. You may use it for private study, scholarship, research or language learning purposes only