» » »

Sabotage Bass tabs (ver.1)

Artists:  A B C D E F G H I J K L M N O P Q R S T U V W X Y Z # 

Sabotage Bass tabs (ver.1)

Cancer Bats
Rating:
2/5 (3 votes)

Hard to play? Try these video lessons and learn fast.
                

Tuning: Drop C

Main Riff

F|-----------------|-----------------| 
C|-----6-----6-----|-6-----6-----6~--|
G|-----------------|-----------------|
C|-8-8---8-8---8-8-|---8-8---8-8-----|

Main Riff Variation (listen to the track for when it occurs)

F|-----------------|-----------------| 
C|-----6-----6-----|-6-----6~----6---|
G|-----------------|-----------------|
C|-8-8---8-8---8-8-|---8-8-----------|

Fill

F|--------------6~--|
C|----------6-------|
G|------6-8---8-----|
C|-8-11-------------|

Guitar Fill

F|---------|----|----|--------|----|----|----|--------------6~--|
C|---------|----|----|--------|----|----|----|----------6-------|
G|---------|----|----|--------|----|----|----|------6-8---8-----|
C|-8\------|----|----|------1~|/8~-|----|----|-8-11-------------|
            
Hard to play? Try these video lessons and learn fast. | Correct




comments powered by Disqus
↑ Back to top | Tablatures and chords are parodies/interpretations of the original songs. You may use it for private study, scholarship, research or language learning purposes only