>
 >
Thank You

Thank You Guitar Tabs

Calling - Thank You chords, tabs, tablatures, lyrics

Guitar lessons | Add/correct | Request | Top 50 tabs Artists:  A B C D E F G H I J K L M N O P Q R S T U V W X Y Z 0-9

Thank You Guitar Tabs – Calling

CD, Sheet music, Poster

Do you like Thank You? Share with your friends now
ChordsChords v2TabsTabs v2Tabs v3Ukulele
Standard Tuning
Note: You need to get the strumming right to get the best results!!

Intro:
       Em      Am       D
  .^.  ^ ^     ^ ^     ^ ^
|-xxx--3-3--s--0-0--s--0-0--s--|
|-xxx--3-3--t--1-1--t--3-3--t--|
|-xxx--0-0--r--2-2--r--2-2--r--|
|-xxx--2-2--u--2-2--u--0-0--u--|
|-xxx--2-2--m--0-0--m--0-0--m--|                      
|-xxx--0-0---------------------|                      
  first  second 
Verse:part1 (play twice)                               
           time
  Em             Am             D               Em
  .^. .^. ^ ^ .  .^. .^. ^ ^ .  .^.  .^. ^ ^ .  .^.
.^.   ^ ^     .
|-333-xxx-3-3-3--000-xxx-0-0-0--000--xxx-0-0-0--333-xxx-|-2-0-| |-3-|
|-333-xxx-3-3-3--111-xxx-1-1-1--333--xxx-3-3-3--333-xxx-|-0-0-| |-3-|
|-000-xxx-0-0-0--222-xxx-2-2-2--222--xxx-2-2-2--000-xxx-|-0-0-| |-0-|
|-222-xxx-2-2-2--222-xxx-2-2-2--0----xxx-0-0-0--222-xxx-|-2-2-| |-2-|
|-2---xxx-2-2-2--0---xxx-0-0-0--0----xxx-0-0-0--2---xxx-|-2-2-| |-2-|
|-0---xxx-0-0-0------xxx-------------xxx--------0---xxx-|-0-2-| |-0-|

Verse:part2: same chords but each chord ends with a
free strum 
        with less muffling. play Em-Am-D-Em once only

Chorus:
   C    D   G             C    D   G
|-3-3- -222- -3-333-53-33- -3-3--222--3-listen--|
|-3-3- -333- -3-333-53-33- -3-3--333--3---to----|
|-0-0- -222- -0-000-00-00- -0-0--222--0-track---|
|-2-2- -000- -0-000--0-00- -2-2--000--0--for----|
|-3-3- ----- -2-222--2-22- -3-3-------2-no.of---|
|----- ----- -3-333--3-33------------3-strums!-|

   C    D   G             C    D   Em
                                   ^^   ^^
|-3-3--222--3-333-53-33--3-3--222--33-s-33-s-|
|-3-3--333--3-333-53-33--3-3--333--33-t-33-t-|
|-0-0--222--0-000-00-00--0-0--222--00-r-00-r-|
|-2-2--000--0-000--0-00--2-2--000--22-u-22-u-|
|-3-3-------2-222--2-22--3-3-------22-m-22-m-|
|-----------3-333--3-33------------00---00---|

&
downs 
in strumming.

Verse - Chorus- Solo:
I’m okay at solos’but I don’t know if its right.Sorry if it isn’t!

|-\\------------------------------------------| 
|-\\-10-10-10-10-10/-8-88888-----------88-----|
|----12-12-12 12-12/-9-99999-9p77-9p77-77-7-9-|
|----------------------------9p77-9p77----7-9-|
|---------------------------------------------|
|---------------------------------------------|

|----vibrate---------10---10---------|
|-----8-8-88-10br 10b--10b--10br-8-8-|
|-7h9---------------keep   bend---9--|
|------------------------------------|
|------------------------------------|
|------------------------------------|
pretty fast
e|-12-12-10h12-10h12-10h12-10h12-10h12-10h12-10br-10br-10br---|
B|---------------------------------------------------------8~-|
G|------------------------------------------------------------|

e|-10-12\17br-17br-17br-15-15-15--------|
B|-------------------------------15/8~~-|





Comments


Popular Calling tabs & chords
Wherever You Will Go 1 Chords
Wherever You Will Go 8 Chords
Adrienne Intro Tabs
Stigmatized 4 Tabs
Stigmatized Intro Tabs
Thank You 1 Tabs
Things Don't Always Turn Out That Way 1 Tabs
Thank You Ukulele
Things Dont Always Turn Out That Way Ukulele
Your Hope Ukulele


Song lyrics



↑ Back to top | Tablatures and chords are parodies/interpretations of the original songs. You may use it for private study, scholarship, research or language learning purposes only
© 2014 AZChords.com Contact us | Privacy policy | DMCA | Add/correct tabs | Request tabs | Top 50 tabs