» » »

Nothing's Changed Tabs (ver.1)

Artists:  A B C D E F G H I J K L M N O P Q R S T U V W X Y Z # 

Nothing's Changed Tabs (ver.1)

Calling
Rating:
0/5 (0 votes)

Hard to play? Try these video lessons and learn fast.
                
Capo 3rd fret (or play the barre equivalents if you can't be bothered with it!)

Intro and all Verses (just repeat)
e--------------------------------------
b--------------------------------------
g--5-5-5-5--5-5-5-5--4-4-4-4--4-4-4-4--
d--x-x-x-x--x-x-x-x--x-x-x-x--x-x-x-x--
a--3-3-3-3--3-3-3-3--2-2-2-2--2-2-2-2--
e--------------------------------------

e-----------------------------------------
b-----------------------------------------
g--9-9-9-9--9-9-9-9--10101010--9-9-9-7----
d--x-x-x-x--x-x-x-x--x-x-x-x---x-x-x-x----
a--7-7-7-7--7-7-7-7--8-8-8-8---7-7-7-5----
e-----------------------------------------

chorus: (just strum if you don't want to pick
individual notes)

e------0----------0---------0---
b------1-------1--1---------1---
g----0-0------0---0------0--0---
d---2--2----------x-----2---2---
a--3---3-----2----2----0----0---
e-------------------------------

e--1-1-1-1---0-0-0-0-------
b--1-1-1-1---0-0-0-0-------
g--2-2-2-2---0-0-0-0-------
d--3-3-3-3---2-2-2-2-------
a--3-3-3-3---2-2-2-2-------
e--1-1-1-1---0-0-0-0------- 

x2

2nd verse and then 2nd chorus:

middle

e---------------------
b---------------------
g--10-s-12-s-14-s-12--
d---------------------
a--8-s--10-s-12-s-10--
e---------------------

                is it gonna last forever?......
e-----------------------------
b-----------------------------
g---10-s-12-s-14-s-17-17------
d-----------------------------
a---8-s--10-s-12-s-15-15-15---
e-----------------------------

Solo:

e--------------------------------------------------------------
b--------------------------------------------------------------
g----------------13-13--15b-15b-13------------------------------
d--------13-h-15----------------------11-13-13b-13b-13b-13b-11~-
a---16-s--------------------------------------------------------
e---------------------------------------------------------------

e-------------------------------------------------------
b-----------14-16-16-18-18---19-18-16-14----------------
g---13-h-15-------------------------------15b-13--------
d-------------------------------------------------------
a-------------------------------------------------------
e-------------------------------------------------------

(not sure about this part, i'd welcome any corrections)
e----------------------------------------------------------
b----------------------------------------------------------
g----------------------------------------------------------
d------------------------------13-15-15-13---13------------
a----------11-13-13-11-13-13s15------------15--------------
e--11-h-13-------------------------------------------------

e----------------------------------------------------------
b---------------------13-13-11~--13-13-16~-----------------
g--------13-15-15-13---------------------------------------
d--13h15---------------------------------------------------
a----------------------------------------------------------
e----------------------------------------------------------

After that go into one more Verse, the chorus and then the outro which is
simply a repeat of the chorus!
            
Hard to play? Try these video lessons and learn fast. | Correct




comments powered by Disqus
↑ Back to top | Tablatures and chords are parodies/interpretations of the original songs. You may use it for private study, scholarship, research or language learning purposes only