>
 >
For You 2

For You 2 Guitar Tabs

Calling - For You 2 chords, tabs, tablatures, lyrics

Guitar lessons | Add/correct | Request | Top 50 tabs Artists:  A B C D E F G H I J K L M N O P Q R S T U V W X Y Z 0-9

For You 2 Guitar Tabs – Calling

CD, Sheet music, Poster

Do you like For You 2? Share with your friends now
TabsTabs v2Tabs v3
For You
the Calling

I listened very carefully to this song and Im 99% sure that this is correct...


Intro: Do (riff 1) 4x

Stanza 1:

Fm     Eb
  I am vision
     Bb
I am justice
       C#          Eb
Never thought that i could love
Fm           Eb
  Living in shadows
        Bb
Fading existence
       C#     Eb
It was never good enough


Refrain:

Fm           Eb
  Within the darkness
    Bb                  C#        Eb        
You are the light that shines the way
Fm              Eb
All trapped in violence
      Bb              C#       Eb
I can be the man who saves the day


Chorus:

G#    Eb        (riff 1)                
  I'm there for you
No matter what
G#    Eb        (riff 1)
  I'm there for you
Never giving up
G#    Eb        (riff 1)
  I'm there for you
For you


Stanza 2:

Fm           Eb
  Someone's changed me
          Bb
Something saved me
             C#   Eb
And this is who i am
Fm               Eb
  Although i was blinded 
                Bb             
My heart let me find out
      C#           Eb
That truth makes a better man


Refrain:

F#         Eb
  I didn't notice
              Bb        C#     Eb
That you were right in front of me
F#            Eb
  Our mask of silence
     Bb          C#      Eb
Were put away so we can see


Chorus:

G#    Eb        (riff 1)                
  I'm there for you
No matter what
G#    Eb        (riff 1)
  I'm there for you
Never giving up
G#    Eb        (riff 1)
  I'm there for you
For you


Adlib: 
(the rhythm guitar could play the chords above the tab...)

   Fm     Eb     C      Eb
|--------------------------------------|
|--------------------------------------|
|--15-13--12-8--12-15-13/15-13--------|
|--------------------------------------|
|--13-11--10-6--10-13-11/13-11--------|
|--------------------------------------|


   Fm     Eb    C      Eb                          Fm
|--------------------------------------------------1--|
|--------------------------------------------------1--|
|--15-13--12-8--12-15-6--8--10--12--6-6-10-8-6----1--|
|--------------------------------------------------3--|
|--13-11--10-6--10-13-4--6--8---10-4-4-8--6-4----3--|
|--------------------------------------------------1--|


Refrain:
Fm            Eb
  Within the darkness
    Bb                 C#         Eb
You are the light that shines the way
Fm              Eb
  In this blind justice
      Bb               C#       Eb
I can be that man who saves the day


Chorus:

G#     Eb       (Riff 1)
  I'm there for you
No matter what
G#     Eb       (Riff 1)
  I'm there for you
Never giving up
G#     Eb       (Riff 1)
  You know it's true
You were there for me
G#     Eb       (Riff 1)
  And i'm there for you
    
     (Riff 1)
For you
     (Riff 1)
For you
     (Riff 1) then Fm...
For you


Riff 1:
|-------------------------|
|---6--8--10--12--13------|
|---x--x--x---x---x-------|
|---4--6--8---10--11------|
|-------------------------|
|-------------------------|


Chords used:

  Fm      Eb      Bb       C#      C       G#      
|--1--| |--6--| |--1--| |--4--| |--3--| |--4--| 
|--1--| |--8--| |--3--| |--6--| |--5--| |--4--| 
|--1--| |--8--| |--3--| |--6--| |--5--| |--5--|
|--3--| |--8--| |--3--| |--6--| |--5--| |--6--|
|--3--| |--6--| |--1--| |--4--| |--3--| |--6--|
|--1--| |-----| |-----| |-----| |-----| |--4--|

Thanks!!!





Comments


Popular Calling tabs & chords
Anything Chords
One By One Chords
Things Don't Always Turn Out That Way Chords
Wherever You Will Go 8 Chords
Adrienne 1 Tabs
Stigmatized (Intro Ver 2) Tabs
Adrienne Ukulele
Nothings Changed Ukulele
Things Dont Always Turn Out That Way Ukulele
Why Dont You And I Ukulele


Song lyrics



↑ Back to top | Tablatures and chords are parodies/interpretations of the original songs. You may use it for private study, scholarship, research or language learning purposes only
© 2014 AZChords.com Contact us | Privacy policy | DMCA | Add/correct tabs | Request tabs | Top 50 tabs