» » »

Calling, Anything Tabs (ver.1)

Artists:  A B C D E F G H I J K L M N O P Q R S T U V W X Y Z # 

Anything Tabs (ver.1)

Calling Tabs
 Rating:
4/5 (4 votes)
Anything lessons Tabs too difficult? Try these video lessons and learn fast
                			     Anything – The Calling

Tuning: Db Ab Db Ab Db Db

You’ll have to work out how many times to strum the chords in the chorus 
and brigde yourself. Make sure you tune it correctly!

Intro

e|------0----------0--------0----------0----------0--------|
B|--------0-------------------0----------0----------0------|
G|----------------------------------------------------0----|
D|----------4--------4----------5----------5---------------|
A|--------------------------------------------2-2----------|
E|--0-0-------0-0-------5-5--------5-5---------------------|

e|-------0---------------0--|
B|---------0-------------0--|
G|-----------0----0------0--|
D|------------------5-5--0--|
A|---0-0-----------------5--|
E|-------------5-5-------5--|


Verse

e|-----0----------0--------0----------0----------0---------0--------------|
B|-------0-------------------0----------0----------0---------0------------|
G|---------------------------------------------------0---------0----0-----|
D|---------4--------4----------5----------5---------------------------5-5-|
A|-------------------------------------------2-2-------0-0----------------|
E|-0-0-------0-0-------5-5--------5-5----------------------------5-5------|

e|-----0----------0--------0----------0----------0---------0--------------|
B|-------0-------------------0----------0----------0---------0------------|
G|---------------------------------------------------0---------0----0-----|
D|---------4--------4----------5----------5---------------------------5-5-|
A|-------------------------------------------2-2-------0-0----------------|
E|-0-0-------0-0-------5-5--------5-5----------------------------5-5------|

Chorus

e|--0--0--0--0--0---|
B|--0--0--0--0--0---|
G|--0--0--0--0--0---|
D|--7--0--4--2--0---|
A|--5--5--2--0--5---|
E|--0--5--------5---|

Verse

Chorus

Bridge

e|--0--0--0--0--0--|
B|--0--0--0--0--0--|
G|--0--0--0--0--0--|
D|--0--0--0--0--0--|
A|--5--7--9--7--5--|
E|--5--7--9--7--5--|

Chorus

Rock On
            
Submit corrections

comments powered by Disqus
↑ Back to top | Calling Tabs for Anything. Lyrics for acoustic guitar and electric guitar. Tablatures and chords are parodies/interpretations of the original songs. You may use it for private study, scholarship, research or language learning purposes only