>
 >
Nananaginip

Nananaginip Guitar Tabs

Callalily - Nananaginip chords, tabs, tablatures, lyrics

Guitar lessons | Add/correct | Request | Top 50 tabs Artists:  A B C D E F G H I J K L M N O P Q R S T U V W X Y Z 0-9

Nananaginip Guitar Tabs – Callalily

CD, Sheet music, Poster

Do you like Nananaginip? Share with your friends now
ChordsChords v2TabsTabs v2Tabs v3Ukulele
Tuning: standard


.....Im dEnnIS mEndeZ frOm aNtiplo cIty, 15-yr-old mUsician


.....tHis tAblure is bAsed onLy wHat i hear in this sOng.....

..I dEdicated tHis sOng to kArla mAye sAntillan, hRp ng heaRt bRoken kEa n inspire 
aqng kPain itng song n 2..




= guitar 1 - rhythm guitar (Tatsi Jamnaque)
= guitar 2 - lead guitar (Alden Acosta)


Intro: 

Guitar 1 - C-G-Am-F (power chords)

Guitar 2 -


e|-----------10-7-------------7-------------10-7-----------|
B|---------8------888----8-10---88--------8------88-8h10---|
G|----77h9---------------------------77h9------------------|
D|---------------------------------------------------------|
A|---------------------------------------------------------|
E|---------------------------------------------------------|


Verse 1(2x):

Guitar 1 - C-G-C-Em-Am-F (chords proper)

Guitar 2 -

...tIming is needed, here are the tabs with corresponding chords for guitar 1

       (Em)          (G) fig. 2   (Em) fig. 2
e|------------7/--|---7x7~------|----------7--|
B|--------8-------|---7x7~------|----8---8----|
G|----8-----7-----|---7x7~------|--9---9------|
D|--9---9---------|-------------|-------------|
A|----------------|-------------|-------------|
E|----------------|-------------|-------------|

Chorus:

Guitar 1 - C-G-Am-F (2x)

Guitar 2 - (listen carefully, play it every cHords)

e|-----------7--|
B|----8---8-----|
G|--9---9-------|
D|--------------|
A|--------------|
E|--------------|

(INTRO)

Verse 2(2x): 

Guitar 1 - C-G-C-Em-Am-F

Guitar 2 - 

..tIming is needed, here are the tabs with corresponding chords for guitar 1.

    (G)       (Em)       (C-G-C) fig.2
e|--7x7~-|----------7--|---------------|-----7--|
B|--7x7~-|----8---8----|---------------|---8----|
G|--7x7~-|--9---9------|----4(32x)-----|-9------|
D|-------|-------------|---------------|--------|
A|-------|-------------|---------------|--------|
E|-------|-------------|---------------|--------|

(CHORUS)

Solo:

Guitar 1: C-G-Am-F (2x)

Guitar 2:

e|---------------------------|-----------------------------------|
B|---------------------------|----------1515p13121212h13---------|
G|--------------999/12121212-|-12h14-12-----------------12-------|
D|-101010--7-7--xxx/-x-x-x-x-|----------------------------12h14--|
A|-x-x-x---x-x--777/10101010-|-----------------------------------|
E|-8-8-8---5-5---------------|-----------------------------------|

(continue)

e|---------------------------------------------------|
B|-------------------------------------131517-17^rb--|
G|-14-12-14-12-14/16--17-16-14--141416---------------|
D|---------------------------------------------------|
A|---------------------------------------------------|
E|---------------------------------------------------|

(continue)

e|--------------------------------------------15---------------------------|
B|--171515h1715--13h1515-------------------------17-13-----------1313h15~--|
G|-----------------------1616h17--16-14141214----------14~-14h16-----------|
D|-------------------------------------------------------------------------|
A|-------------------------------------------------------------------------|
E|-------------------------------------------------------------------------|

(CHORUS 2x)

Note: ung fInal ch0rUs pOh nDi cu nGwa..

..eNjoy!

  





Comments


Popular Callalily tabs & chords
Sanctuary Bass Tabs
Trapped Inside The Moment Chords
Walang Sumipot Chords
Isabel 1 Tabs
Kung Kaya Ko Lang 1 Tabs
Luha Tabs
Take My Hand 3 Tabs
Takipsilim Tabs
Isabel Ukulele
Right Ukulele


Song lyrics



↑ Back to top | Tablatures and chords are parodies/interpretations of the original songs. You may use it for private study, scholarship, research or language learning purposes only
© 2014 AZChords.com Contact us | Privacy policy | DMCA | Add/correct tabs | Request tabs | Top 50 tabs