>
 >
Nananaginip 1

Nananaginip 1 Guitar Tabs

Callalily - Nananaginip 1 chords, tabs, tablatures, lyrics

Guitar lessons | Add/correct | Request | Top 50 tabs Artists:  A B C D E F G H I J K L M N O P Q R S T U V W X Y Z 0-9

Nananaginip 1 Guitar Tabs – Callalily

CD, Sheet music, Poster

Do you like Nananaginip 1? Share with your friends now
ChordsChords v2TabsTabs v2Tabs v3Ukulele
Nananaginip by Callalily


Intro:
C5  G  Am - F
Lead
e|-------10-7~------------10-7~----------10-7~------------------------|
B|-----8---------8~-----8-------8~-----8-------8-8/10-10~-------------|
G|-7-9--------------7-9------------7-9--------------------------------|
D|--------------------------------------------------------------------|
A|--------------------------------------------------------------------|
E|--------------------------------------------------------------------|

Verse
Rhythm
e|-0-0-0-0-0-3-3-3-3-3-0-0-0-0-0-3-3-3-3-3-----0~-1~------------------|
B|-0-0-0-0-0-3-3-3-3-3-0-0-0-0-0-3-3-3-3-3-----1~-1~------------------|
G|-0-0-0-0-0-0-0-0-0-0-0-0-0-0-0-0-0-0-0-0-----2~-2~------------------|
D|-2-2-2-2-2-0-0-0-0-0-2-2-2-2-2-0-0-0-0-0-----2~-3~------------------|
A|-3-3-3-3-3-2-2-2-2-2-3-3-3-3-3-2-2-2-2-2-----0~-3~------------------|
E|-----------3-3-3-3-3-----------3-3-3-3-3--------1~------------------|
Lead
e|-----------------------------------7--------------------------------|
B|---------------------------------8-----10-8~------------------------|
G|-------------------------------9-----9------------------------------|
D|--------------------------------------------------------------------|
A|--------------------------------------------------------------------|
E|--------------------------------------------------------------------|

Rhythm
e|-0-0-0-0-0-3-3-3-3-3-0-0-0-0-0-3-3-3-3-3-----0~-1~------------------|
B|-0-0-0-0-0-3-3-3-3-3-0-0-0-0-0-3-3-3-3-3-----1~-1~------------------|
G|-0-0-0-0-0-0-0-0-0-0-0-0-0-0-0-0-0-0-0-0-----2~-2~------------------|
D|-2-2-2-2-2-0-0-0-0-0-2-2-2-2-2-0-0-0-0-0-----2~-3~------------------|
A|-3-3-3-3-3-2-2-2-2-2-3-3-3-3-3-2-2-2-2-2-----0~-3~------------------|
E|-----------3-3-3-3-3-----------3-3-3-3-3--------1~------------------|
Lead
e|--------------2-2~-----------------7--------------------------------|
B|--------------3-3~---------------8-----10-8~------------------------|
G|-------------------------------9-----9------------------------------|
D|--------------------------------------------------------------------|
A|--------------------------------------------------------------------|
E|--------------------------------------------------------------------|


Chorus(Distorted)
e|--------------------------------------------------------------------|
B|--------------------------------------------------------------------|2x
G|-5-5-5-5-5-5---------2-2-2-2-2--------------------------------------|
D|-5-5-5-5-5-5-5-5-5-5-2-2-2-2-2-3-3-3-3-3----------------------------|
A|-3-3-3-3-3-5-5-5-5-5-0-0-0-0-0-3-3-3-3-3----------------------------|
E|-----------3-3-3-3-3-----------1-1-1-1-1----------------------------|

(Repeat Intro)
Verse 2
Ulitin nio lang poh ung cords pero ung lead iba ang arrangement. Ito po ang pagkasunod2x ng lead.
Pakinggan lang poh ang kanta.

2nd verse Lead
1st Stanza
e|-2-2~--------9------------|
B|-3-3~------8-----10-8~----|
G|---------7-----7----------|
D|--------------------------|
A|--------------------------|
E|--------------------------|
2nd Stanza
e|------------------------------------------------------------------|
B|---------------------------------8---10~--------------------------|
G|-4-4-4-4-4-4-4-4-4-4-4-4-4(2x)-9---9------------------------------|
D|------------------------------------------------------------------|
A|------------------------------------------------------------------|
E|------------------------------------------------------------------|

(Repeat Chorus)

Guitar Solo
Chords: C  G  Am  F (Power Chords poh ang sa solo at distorted)

e|-----------------------------------------------------------------------------|
B|---------------------------13/15-13-12-13p12-10~--8h10-8h10-10/12~-13-12-10--|
G|------7/9~-9/12~-12/14-12~---------------------------------------------------|
D|-/9-7------------------------------------------------------------------------|
A|-----------------------------------------------------------------------------|
E|-----------------------------------------------------------------------------|

e|-----------------------------------------------------------------------------|
B|-13/15-13-15-13-15-15b(17)-15~-13-15-15b(17)r13h15~-15/13-12h13p12-----------|
G|-------------------------------------------------------------------14-12-----|
D|-----------------------------------------------------------------------------|
A|-----------------------------------------------------------------------------|
E|-----------------------------------------------------------------------------|

e|----15-12---------------------------------------------------------|
B|-13-------13-------12-13-12-13/15~--------------------------------|
G|-------------12/14------------------------------------------------|
D|------------------------------------------------------------------|
A|------------------------------------------------------------------|
E|------------------------------------------------------------------|


Chorus

e|-0-0-0-0-0-3-3-3-3-3----------------------------------------------|
B|-1-1-1-1-1-3-3-3-3-3-1-1-1-1-1------------------------------------|
G|-0-0-0-0-0-0-0-0-0-2-2-2-2-2-2------------------------------------|
D|-2-2-2-2-2-0-0-0-0-0-2-2-2-2-2-3-3-3-3-3--------------------------|
A|-3-3-3-3-3-2-2-2-2-2-0-0-0-0-0-3-3-3-3-3--------------------------|
E|-----------3-3-3-3-3-----------1-1-1-1-1--------------------------|
                                 . . . . .
Repeat Chorus

Last Chorus Lead
e|------------------------------------------------------------------|
B|-8-8-8-8---8-8-8-8-0-8-8-8-8/10-8-10-10/12-10b--------------------|
G|---------5--------------------------------------------------------|2x
D|------------------------------------------------------------------|
A|------------------------------------------------------------------|
E|------------------------------------------------------------------|

This is my 2nd tab so far. . This is a special request from my bestfriend, Patricia
Janelle Contreras. . Hearth Broken daw sya. . Hahaha! Thanks! 





Comments


Popular Callalily tabs & chords
Magbalik 3 Bass Tabs
I Love You Bisaya Chords
Yakap 1 Chords
Insane 3 Tabs
Magbalik 6 Tabs
Pansamantala Intro Tabs
Pasan 3 Tabs
Stars 6 Tabs
Sabik Na Sabik Ukulele
Shine Ukulele


Song lyrics



↑ Back to top | Tablatures and chords are parodies/interpretations of the original songs. You may use it for private study, scholarship, research or language learning purposes only
© 2014 AZChords.com Contact us | Privacy policy | DMCA | Add/correct tabs | Request tabs | Top 50 tabs