» » »

Callalily, Magbalik Bass tabs (ver.3)

Artists:  A B C D E F G H I J K L M N O P Q R S T U V W X Y Z # 

Magbalik Bass tabs (ver.3)

Callalily Tabs
 Rating:
3.7/5 (6 votes)
Magbalik lessons Tabs too difficult? Try these video lessons and learn fast
                this is from my band, MJ ConNecTion... this bass tab is the most accurate of all..
intro:
G|-------------------------|
D|---------4s6-----2-------|
A|-----2--------0-----2s4--|
E|--0----------------------|

Verse 1:
G|----------------------------|
D|----------------------------|
A|-----2---2s4--4---0---------|
E|--0-------------------------|
(do this until the song reach refrain)

Refrain:
G|---------------------------------------------------------------|
D|---------------------------------------------------------------|
A|------------2-2-0h2-------------2-2-2s4p2-0-----------2-2-0h2--|
E|--2-2-0h2--------------2-2-0h2-------------0-2-2-0h2-----------|
ang awit ng....

G|-----------------------------------------------|
D|-----------------------------------------------|
A|-----------------------------------------7h9---|
E|-----5-5-5-5-5-5-5-5s7-7-7-7-7-7-7-7-7h9-------|

Chorus:
tulad ng mundong hindi tumitigil sa pag-ikot, pag-ibig di mapapagod...
G|--------------------------------|
D|--------------------------------|
A|-----2-2s4-4--------------------|
E|--0----------5------------------|

Verse 2:
(do like verse 1)

(Repeat refrain)

(Repeat chorus)

Adlib:
G|---------------------------|
D|---------------------------|
A|---4-----------------------|2x
E|------7----5---------------|

(repeat chorus 2x)
            
Submit corrections

comments powered by Disqus
↑ Back to top | Callalily Bass for Magbalik. Lyrics for acoustic guitar and electric guitar. Tablatures and chords are parodies/interpretations of the original songs. You may use it for private study, scholarship, research or language learning purposes only