» » »

Callalily, Magbalik Bass tabs (ver.2)

Artists:  A B C D E F G H I J K L M N O P Q R S T U V W X Y Z # 

Magbalik Bass tabs (ver.2)

Callalily Tabs
 Rating:
3.7/5 (6 votes)
Magbalik lessons Tabs too difficult? Try these video lessons and learn fast
1
                Intro:
G|-----------------------|
D|-----3s6---------------|
A|---2-------2--4s7------| 2x
E|-0-------0-------------|

G|--------------------------------------------------------------------|
D|--------------------------------------------------------------------|
A|-7-7-7-7-7-7-7-7----------------------------------------------------|
E|-----------------7-7-7-7-7-7-7-7--9-9-9-9-9-9-9-9--5-5-5-5-5-5-5-5--|

G|----------------------------------------------------------|
D|----------------------------------------------------------|
A|-7-7-7-7-7-7-7-7------------------------------------------|
E|-----------------7-7-7-7-7-7-7-7--9-9-9-9-9-9-9-9--5-5-5--|

Verse1:
G|----------------|
D|----------------|
A|---2--2s4--4----| 4x
E|-0-----------5--|

G|----------------|
D|----------------|
A|----------------|
E|-5s1------------|

Refrain:
G|------------------------------------------|
D|------------------------------------------|
A|-------2-2--0h2-------2-2-2h4--2----------|
E|-2-2-2----------2-2-2------------0--0--4--|

G|---------------------------------------------------------------|
D|---------------------------------------------------------------|
A|-------2-2-2-0-0-0-0-0-0-0-0--2-2-2-2-2-2-2-2-2-2-2-2-2-2-2-2--|
E|-2-2-2---------------------------------------------------------|

Chorus:
G|-------------|
D|-------------|
A|-7-----------|
E|-------------|

G|-------------|
D|-------------|
A|-------------|
E|-5s1---------|

G|--------------------------------------------------------------------|
D|--------------------------------------------------------------------|
A|-7-7-7-7-7-7-7-7----------------------------------------------------|
E|-----------------7-7-7-7-7-7-7-7--9-9-9-9-9-9-9-9--5-5-5-5-5-5-5-5--|

G|----------------------------------------------------------|
D|----------------------------------------------------------|
A|-7-7-7-7-7-7-7-7------------------------------------------|
E|-----------------7-7-7-7-7-7-7-7--9-9-9-9-9-9-9-9--5-5-5--|

Verse2:
G|----------------|
D|----------------|
A|---2--2s4--4----| 4x
E|-0-----------5--|

G|----------------|
D|----------------|
A|----------------|
E|-5s12s1---------|

Refrain:
G|------------------------------------------|
D|------------------------------------------|
A|-------2-2--0h2-------2-2-2h4--2----------|
E|-2-2-2----------2-2-2------------0--0--4--|

G|---------------------------------------------------------------|
D|---------------------------------------------------------------|
A|-------2-2-2-0-0-0-0-0-0-0-0--2-2-2-2-2-2-2-2-2-2-2-2-2-2-2-2--|
E|-2-2-2---------------------------------------------------------|

Chorus:
G|------------------------------------------------------|
D|------------------------------------------------------|
A|-7-7-7-7-7-7-7-7--------------------------------------|
E|-----------------7--9-9-9-9-9-9-9-9--5-5-5-5-5-5-5-5--|

G|-----------------------------------------------------------|
D|-----------------------------------------------------------|
A|-7-7-7-7-7-7-7-7-------------------------------------------|
E|-----------------7--7s1--9-9-9-9-9-9-9-9--5-5-5-5-5-5-5-5--|

Adlib:
G|---------------------------------------------------|
D|---------------------------------------------------|
A|-7-7-7-7-7-7-7-7--4-4-4-4-4-4-4-4------------------|
E|----------------------------------5-5-5-5-5-5-5-5--|

G|----------------------------------------------------------|
D|----------------------------------------------------------|
A|-7-7-9-9-11-11-12-11-9-7----------------------------------|
E|-------------------------7-7-7-7-7-7-7-7--9-9-9-9-9-9-9-9-|

G|------------------------------------|
D|------------------------------------|
A|------------------------------------|
E|-5-5-5-5-5-5-5-5-5-5-5-5-5-5-5-5-5--|

Chorus:
G|-------------|
D|-------------|
A|-7-----------|
E|-------------|

G|-------------|
D|-------------|
A|-------------|
E|-5s1---------|

G|--------------------------------------------------------------------|
D|--------------------------------------------------------------------|
A|-7-7-7-7-7-7-7-7----------------------------------------------------| 2x
E|-----------------7-7-7-7-7-7-7-7--9-9-9-9-9-9-9-9--5-5-5-5-5-5-5-5--|

G|----------------------------------------------------------|
D|----------------------------------------------------------|
A|-7-7-7-7-7-7-7-7------------------------------------------|
E|-----------------7-7-7-7-7-7-7-7--9-9-9-9-9-9-9-9--5-5-5--|

End
Pakinggan nyo nalang po kanta para sa timing. pakirate na rin po.
            
Submit corrections

comments powered by Disqus
↑ Back to top | Callalily Bass for Magbalik. Lyrics for acoustic guitar and electric guitar. 1 Tablatures and chords are parodies/interpretations of the original songs. You may use it for private study, scholarship, research or language learning purposes only