>
 >
Kung Kaya Ko Lang

Kung Kaya Ko Lang Guitar Tabs

Callalily - Kung Kaya Ko Lang chords, tabs, tablatures, lyrics

Guitar lessons | Add/correct | Request | Top 50 tabs Artists:  A B C D E F G H I J K L M N O P Q R S T U V W X Y Z 0-9

Kung Kaya Ko Lang Guitar Tabs – Callalily

CD, Sheet music, Poster

Do you like Kung Kaya Ko Lang? Share with your friends now
ChordsTabsTabs v2Ukulele

Hi po kay kuya JR., ATE REMY ROSE at JOYMELIE!!!! Update ko po yung kulang....

Intro:
Guitar 1:
e|--44444444--|--22222222--|--------------------|
B|--55555555--|--44444444--|--2222222222222222--|
G|--66666666--|--44444444--|--2222222222222222--|
D|--66666666--|--44444444--|--2222222222222222--| 2x
A|--44444444--|--22222222--|--------------------|
E|------------|------------|--------------------|
(continued)
e|------------|------------|--------------------|
B|------------|------------|--------------------|
G|--66666666--|--44444444--|--------------------|
D|--66666666--|--44444444--|--7777777777777777--| 2x
A|--44444444--|--22222222--|--7777777777777777--|
E|------------|------------|--5555555555555555--|
Guitar 2:
e|----------------------------------|----------------------------------|
B|----------------------------------|----------------------------------|
G|-66666666/44444444/22222222222222-|-66666666/88888888/99999999999999-|
D|-xxxxxxxx/xxxxxxxx/xxxxxxxxxxxxxx-|-xxxxxxxx/xxxxxxxx/xxxxxxxxxxxxxx-| 2x
A|-44444444/22222222/00000000000000-|-44444444/66666666/77777777777777-|
E|----------------------------------|----------------------------------|

Verse :
Guitar 1:                                                                   
e|--00000000--|--22222222--|--44444444--|--00000000--|                    
B|--00000000--|--44444444--|--55555555--|--22222222--|
G|--11111111--|--44444444--|--66666666--|--22222222--| 
D|--22222222--|--44444444--|--66666666--|--22222222--| 
A|--22222222--|--22222222--|--44444444--|------------| 
E|------------|------------|------------|------------| 
(continued)
e|--00000000--|--22222222--|------------|------------|
B|--00000000--|--44444444--|------------|------------|
G|--11111111--|--44444444--|--66666666--|------------|
D|--22222222--|--44444444--|--66666666--|--77777777--| 2x
A|--22222222--|--22222222--|--44444444--|--77777777--|
E|------------|------------|------------|--55555555--|
Guitar 2:
e|------------|------------|------------|------------|
B|------------|------------|------------|------------|
G|--9~~-------|------------|------------|------------|
D|--9~~-------|------------|------------|------------|
A|--7~~-------|------------|------------|------------|
E|------------|------------|------------|------------|
(continued)
e|------------|------------|------------|------------|
B|------------|------------|------------|------------|
G|------------|------------|--66666666--|------------|
D|------------|------------|--66666666--|--77777777--| 2x
A|------------|------------|--44444444--|--77777777--|
E|------------|------------|------------|--55555555--|

Chorus:
Guitar 1:
e|------------|------------|------------|------------|
B|------------|------------|------------|------------|
G|--99999999--|--44444444--|--66666666--|------------|
D|--99999999--|--44444444--|--66666666--|--77777777--| 4x
A|--77777777--|--22222222--|--44444444--|--77777777--|
E|------------|------------|------------|--55555555--|
Guitar 2:
e|-------------------------------------------|
B|-------------------------------------------|
G|--99999999/11111111/1313131313/1414141414--|
D|--xxxxxxxx/xxxxxxxx/xxxxxxxxxx/xxxxxxxxxx--| 4x
A|--77777777/99999999/1111111111/1212121212--|
E|-------------------------------------------|

Interlude:
Guitar 1:
e|------------|------------|--------------------|
B|------------|------------|--------------------|
G|--66666666--|--44444444--|--------------------|
D|--66666666--|--44444444--|--7777777777777777--| 
A|--44444444--|--22222222--|--7777777777777777--|
E|------------|------------|--5555555555555555--|
Guitar 2:
e|----------------------------------|
B|----------------------------------|
G|-66666666/44444444/22222222222222-|
D|-xxxxxxxx/xxxxxxxx/xxxxxxxxxxxxxx-|
A|-44444444/22222222/00000000000000-|
E|----------------------------------|

Verse:
Guitar 1:                                                                   
e|--00000000--|--22222222--|--44444444--|--00000000--|                    
B|--00000000--|--44444444--|--55555555--|--22222222--|
G|--11111111--|--44444444--|--66666666--|--22222222--| 
D|--22222222--|--44444444--|--66666666--|--22222222--| 
A|--22222222--|--22222222--|--44444444--|------------| 
E|------------|------------|------------|------------| 
(continued)
e|--00000000--|--22222222--|------------|------------|
B|--00000000--|--44444444--|------------|------------|
G|--11111111--|--44444444--|--66666666--|------------|
D|--22222222--|--44444444--|--66666666--|--77777777--|
A|--22222222--|--22222222--|--44444444--|--77777777--|
E|------------|------------|------------|--55555555--|
Guitar 2:
e|------------|------------|------------|------------|
B|------------|------------|------------|------------|
G|--9~~-------|------------|------------|------------|
D|--9~~-------|------------|------------|------------|
A|--7~~-------|------------|------------|------------|
E|------------|------------|------------|------------|
(continued)
e|------------|------------|------------|------------|
B|------------|------------|------------|------------|
G|------------|------------|--66666666--|------------|
D|------------|------------|--66666666--|--77777777--|
A|------------|------------|--44444444--|--77777777--|
E|------------|------------|------------|--55555555--|

Chorus:
Guitar 1:
e|------------|------------|------------|------------|
B|------------|------------|------------|------------|
G|--99999999--|--44444444--|--66666666--|------------|
D|--99999999--|--44444444--|--66666666--|--77777777--| 4x
A|--77777777--|--22222222--|--44444444--|--77777777--|
E|------------|------------|------------|--55555555--|
Guitar 2:
e|-------------------------------------------|
B|-------------------------------------------|
G|--99999999/11111111/1313131313/1414141414--|
D|--xxxxxxxx/xxxxxxxx/xxxxxxxxxx/xxxxxxxxxx--| 4x
A|--77777777/99999999/1111111111/1212121212--|
E|-------------------------------------------|

Adlib:
Guitar 1:
e|------------|------------|------------|------------|
B|------------|------------|------------|------------|
G|--99999999--|--44444444--|--66666666--|------------|
D|--99999999--|--44444444--|--66666666--|--77777777--| 2x
A|--77777777--|--22222222--|--44444444--|--77777777--|
E|------------|------------|------------|--55555555--|
Guitar 2: Di pa tapos kaya ito muna......
e|--1212-11-9-----|----------------------|
B|-----------12~--|--121212-12^(14)-12~--|
G|----------------|----------------------|
D|----------------|----------------------|
A|----------------|----------------------|
E|----------------|----------------------|

Bridge:
e|--0~--|--2~--|       |----------------------|
B|--2~--|--4~--|       |----------------------|
G|--2~--|--4~--|       |----------------------|
D|--2~--|--4~--| 3x    |--55555555--99999999--|
A|------|--2~--|       |--55555555--99999999--|
E|------|------|       |--33333333--77777777--|

Chorus:
Guitar 1:
e|------------|------------|------------|------------|
B|------------|------------|------------|------------|
G|--99999999--|--44444444--|--66666666--|------------|
D|--99999999--|--44444444--|--66666666--|--77777777--| 3x
A|--77777777--|--22222222--|--44444444--|--77777777--|
E|------------|------------|------------|--55555555--|
(continued)
e|-----------------------|-----------------------|
B|-----------------------|-----------------------|
G|--9-----9-----9-----9--|--4-----4-----4-----4--|
D|--9-----9-----9-----9--|--4-----4-----4-----4--|
A|--7-7-7-7-7-7-7-7-7-7--|--2-2-2-2-2-2-2-2-2-2--|
E|-----------------------|-----------------------|
(continued)                                         2x
e|-----------------------|-----------------------|
B|-----------------------|-----------------------|
G|--6-----6-----6-----6--|-----------------------|
D|--6-----6-----6-----6--|--7-----7-----7-----7--|
A|--4-4-4-4-4-4-4-4-4-4--|--7-----7-----7-----7--|
E|-----------------------|--5-5-5-5-5-5-5-5-5-5--|
Guitar 2:
e|-------------------------------------------|
B|-------------------------------------------|
G|--99999999/11111111/1313131313/1414141414--|
D|--xxxxxxxx/xxxxxxxx/xxxxxxxxxx/xxxxxxxxxx--| 5x
A|--77777777/99999999/1111111111/1212121212--|
E|-------------------------------------------|

End:
e|-----|
B|-----|
G|--9--|
D|--9--|
A|--7--|
E|-----|

enjoy........





Comments


Popular Callalily tabs & chords
Magbalik Chords
Pansamantala Chords
Sabik Na Sabik Chords
Yakap Chords
Muli Tabs
Dahilan Ukulele
Dance All Night Ukulele
Lapit Ukulele
Minsan Ukulele
You And I Ukulele


Song lyrics



↑ Back to top | Tablatures and chords are parodies/interpretations of the original songs. You may use it for private study, scholarship, research or language learning purposes only
© 2014 AZChords.com Contact us | Privacy policy | DMCA | Add/correct tabs | Request tabs | Top 50 tabs