>
 >
Kung Kaya Ko Lang 1

Kung Kaya Ko Lang 1 Guitar Tabs

Callalily - Kung Kaya Ko Lang 1 chords, tabs, tablatures, lyrics

Guitar lessons | Add/correct | Request | Top 50 tabs Artists:  A B C D E F G H I J K L M N O P Q R S T U V W X Y Z 0-9

Kung Kaya Ko Lang 1 Guitar Tabs – Callalily

CD, Sheet music, Poster

Do you like Kung Kaya Ko Lang 1? Share with your friends now
ChordsTabsTabs v2Ukulele
     Kung Kaya Ko Lang
     Album:Destination XYZ

     Intro:
     gtr. 2:
     e--------------------------------------------------|
     B--------------------------------------------------|
     G--------------------------------------------------|
     D-7777777\5555555\3333333s6666666s88888888s9999999-|}x2
     A--------------------------------------------------|
     E--------------------------------------------------|

     gtr. 1:
     e---------------|
     B---------------|
     G-9-7-5--6-7-9--|
     D-9-7-5--6-7-9--|
     A-7-5-3--4-5-7--|
     E---------------|

     Verse 1:
     gtr 1:
     e-------------------------------|
     B-------------------------------|
     G-9-7-5--6-7-9-7--9-7-5--6-7-9--|
     D-9-7-5--6-7-9-7--9-7-5--6-7-9--|
     A-7-5-3--4-5-7-9--7-5-3--4-5-7--|
     E-------------------------------|

     Chorus:
     gtr. 1:
     e-------------------------------|
     B-------------------------------|
     G---7-9-5----7-5----7-9-5-------|
     D-5-7-9-5--5-7-5--5-7-9-5-------|
     A-5-5-7-3--5-5-3--5-5-7-3-------|
     E-3--------3------3-------------|

     gtr. 2:
     e------------------------------------------------------|
     B------------------------------------------------------|
     G------------------------------------------------------|
     D-7(x7)\5(x7)\3(x7)s6(x7)s8(x7)s9(x7)s6(x7)s8(x7)s9(x7)|
     A------------------------------------------------------|
     E------------------------------------------------------|

     Interlude:
     gtr. 1:                    gtr. 2:
     e-----------|              e--------------------------|
     B-----------|              B--------------------------|
     G-9-7-5-----|              G--------------------------|
     D-9-7-5-----|              D-7777777\5555555\3333333--|
     A-7-5-3-----|              A--------------------------|
     E-----------|              E--------------------------|

     Verse 2:
     gtr. 1:
     e-----------|
     B-----------|
     G-9-7-5-6---|
     D-9-7-5-6---|
     A-7-5-3-4---|
     E-----------|

     Play
         Chorus:

     Adlib:
     gtr. 1:
     e-------------------|
     B-------------------|
     G-9-7-5--6-7-9------|
     D-9-7-5--6-7-9------|
     A-7-5-3--4-5-7------|
     E-------------------|

     gtr. 2:
     e---------------------------------------------------------------------|
     B--------------------------------97676-111111111113~12~1111111110-----|
     G-101097-5s7\5444646(X5)-11111097-----7--------------------------1119-|
     D-------10~-------------6---------------------------------------------|
     A---------------------------------------------------------------------|
     E---------------------------------------------------------------------|

     Bridge:
     e-------------------------|
     B-------------------------|
     G-9-7-5--6-7-9------------|
     D-9-7-5--6-7-9------------|
     A-7-5-3--4-5-7------------|
     E-------------------------|

     Chorus:
     gtr. 1:
     e----------------------------------|
     B----------------------------------|
     G---7-9-5----7-5----7-9-5----------|
     D-5-7-9-5--5-7-5--5-7-9-5----------|
     A-5-5-7-3--5-5-3--5-5-7-3----------|
     E-3--------3------3----------------|

     gtr. 2:
     e---------------------------------------------------------|
     B---------------------------------------------------------|
     G---------------------------------------------------------|
     D-7(x7)\5(x7)\3(x7)s6(x7)s8(x7)s9(x7)s6(x7)s8(x7)s9(x7)---|
     A---------------------------------------------------------|
     E---------------------------------------------------------|

     Repeat
           Chorus w/o gtr. 2:

     End w/:
     e--------|
     B--------|
     G--------|
     D-5------|
     A-5------|
     E-3------|

                                 -end-





Comments


Popular Callalily tabs & chords
Farwell Friends Bass Tabs
A Starry Night Chords
Magbalik 1 Chords
Stars Chords
Magbalik 6 Tabs
Pansamantala Intro Tabs
Fake Lullabies Ukulele
Final Song Ukulele
Goodnight Ukulele
Lapit Ukulele


Song lyrics



↑ Back to top | Tablatures and chords are parodies/interpretations of the original songs. You may use it for private study, scholarship, research or language learning purposes only
© 2014 AZChords.com Contact us | Privacy policy | DMCA | Add/correct tabs | Request tabs | Top 50 tabs