» » »

Burned By The Christians Tabs (ver.2)

Artists:  A B C D E F G H I J K L M N O P Q R S T U V W X Y Z # 

Burned By The Christians Tabs (ver.2)

Califone
Rating:
0/5 (0 votes)

Hard to play? Try these video lessons and learn fast.
                (Intro)
     Drop D. Tune it

-----------------------------------------------|
------------7b-7b----------7b-7b---------------|
--0--0-0----------0--0-0-----------------------|
---------0---------------0---------------------|
--------------------------------------0-----0--|
-----------------------------------0-----0-----|

-----------------------------------------------|
-------------------0-00------------------0-00--|
-------------------x-xx------------------x-xx--|
--2b-2/4p0---------4-44---2b-2/4p0-------4-44--|
------------0--3---5-55-------------0--3-5-55--|
-----------------------------------------------|

  Sorry but thats all I could make out.
CH------------------------------------------------->
            
Hard to play? Try these video lessons and learn fast. | Correct




comments powered by Disqus
↑ Back to top | Tablatures and chords are parodies/interpretations of the original songs. You may use it for private study, scholarship, research or language learning purposes only