» » »

Burned By The Christians Chords (ver.1)

Artists:  A B C D E F G H I J K L M N O P Q R S T U V W X Y Z # 

Burned By The Christians Chords (ver.1)

Califone
Rating:
0/5 (0 votes)

Hard to play? Try these video lessons and learn fast.
                I've messed around with this song for a long time and I think I've gotten it somewhat 
not perfect by any means.


Intro:   ---2-2------2-2-------------------|
         ----------------------------------|
         --0-0------0-0--------------------|
         ------0~-------0~---2/4/2~-2-4-0~-|
         ----------------------------------|
         ----------------------------------|


   D                   G                             D
   Wire, in the teeth, while we warm twine, while we breath.

   D                          G                       D
   Scared, notes are blessed, where you been? We lose days.

   chorus:

       Broke hearts are whole.  Burned by the Christians recline.

   --2~------2~--------------   --2~------2~----------------------|
   --------------------------   ----------------------------------|
   0------0------------------   0------0--------------------------|
   -----------------------0~-   --------------------------0~------|
   --------------------------   ----------------------------------|
   --------------------------   ----------------------------------|

    Held under your toung like a tiny stone.    Paid and gone.
   --2~------2~-------------------------------  ---------------|
   -------------------------------------------  ---------------|
   0------0-----------------------------------  ---------------|
   -------------------------2/4/2~------------  2-4-0~---------|
   -------------------------------------------  ---------------|
   -------------------------------------------  ---------------|
            
Hard to play? Try these video lessons and learn fast. | Correct




comments powered by Disqus
↑ Back to top | Tablatures and chords are parodies/interpretations of the original songs. You may use it for private study, scholarship, research or language learning purposes only