>
 >
Arena Of Concealment

Arena Of Concealment Guitar Tabs

Caliban - Arena Of Concealment chords, tabs, tablatures, lyrics

Guitar lessons | Add/correct | Request | Top 50 tabs Artists:  A B C D E F G H I J K L M N O P Q R S T U V W X Y Z 0-9

Arena Of Concealment Guitar Tabs – Caliban

CD, Sheet music, Poster

Do you like Arena Of Concealment? Share with your friends now
Bass TabsTabs
                        Arena of Concealment

                     Caliban Vs. Heaven Shall Burn
                       The Split Programm pt. 2


Tuning: Drop C (from low to high: C,G,C,F,A,D)


Intro

 guitar 1
|------------------------|
|------------------------|
|------------------------|
|-----------<2>-----0~~--|
|-0-0-0--0-------0--0~~--|
|-0-0-0--0-------0--0~~--|
| . . .  .       .
|
|
|guitar 2
|------------------------|
|------------------------|
|------------------------|
|-----------<5>-----0~~--|
|-0-0-0--0-------0--0~~--|
|-0-0-0--0-------0--0~~--|
  . . .  .       . 


Intro pt.2
both guitars
|------------------------------------------------------------|
|------------------------------------------------------------|
|------------------------------------------------------------|
|------------------------------------------------------------|
|-------5h6------6h8-----8h9-----------5h6------6h8-----8h9--|
|-00000-----0000-----000---------00000-----0000-----000------|
  .....     ....     ...         .....     ....     ...
       The Ímage of the world I live in born into

|------------------------------------------------------------|
|------------------------------------------------------------|
|------------------------------------------------------------|
|--------------------------------------------------2/5/4-----|
|-------5h6------6h8-----8h9-----------5h6--0-0-0--3/6/5-----|
|-00000-----0000-----000---------00000------0-0-0------------|
  .....     ....     ...         .....      . . .
  to fall into oblivion is one hugh arena of illusion and


|------------------------------------------------------------|
|------------------------------------------------------------|
|------------------------------------------------------------|
|------------------------------------------------------------|
|-------5h6------6h8-----8h9-----------5h6------6h8-----8h9--|
|-00000-----0000-----000---------00000-----0000-----000------|
  .....     ....     ...         .....     ....     ...
 deceit!!                Nothing´s real!!      

|------------------------------------------------------------|
|------------------------------------------------------------|
|------------------------------------------------------------|
|--------------------------------------------------2/5/4-----|
|-------5h6------6h8-----8h9-----------5h6--0-0-0--3/6/5-----|
|-00000-----0000-----000---------00000------0-0-0------------|
  .....     ....     ...         .....      . . .
                                  Nothing!!

Main Riff
|------------------------------------------------------------|
|------------------------------------------------------------|
|------------------------------------------------------------|
|------------------------------------------------------------|
|-------5h6------6h8-----8h9-----------5h6------6h8-----8h9--|
|-00000-----0000-----000---------00000-----0000-----000------|
  .....     ....     ...         .....     ....     ...
       

|------------------------------------------------------------|
|------------------------------------------------------------|
|------------------------------------------------------------|
|--------------------------------------------------2/5/4-----|
|-------5h6------6h8-----8h9-----------5h6--0-0-0--3/6/5-----|
|-00000-----0000-----000---------00000------0-0-0------------|
  .....     ....     ...         .....      . . .
  
|------------------------------------------------------------|
|------------------------------------------------------------|
|------------------------------------------------------------|
|------------------------------------------------------------|
|-------5h6------6h8-----8h9-----------5h6------6h8-----8h9--|
|-00000-----0000-----000---------00000-----0000-----000------|
  .....     ....     ...         .....     ....     ...
 

|------------------------------------------------------------|
|------------------------------------------------------------|
|------------------------------------------------------------|
|--------------------------------------------------2/5/4-----|
|-------5h6------6h8-----8h9-----------5h6--0-0-0--3/6/5-----|
|-00000-----0000-----000---------00000------0-0-0------------|
  .....     ....     ...         .....      . . .
                                  

Verse

 guitar 1
|-------------------------------------------|
|-------------------------------------------|
|-------------------------------------------|
|--------------------------22222-33333-<2>--|
|-00-11-44-33-00-11-44-33--00000-11111------|
|-00-11-44-33-00-11-44-33-------------------|
| .. .. .. .. .. .. .. ..
|
|
|guitar 2
|-------------------------------------------|
|-------------------------------------------|
|-------------------------------------------|
|--------------------------77777-88888-<5>--|
|-00-11-44-33-00-11-44-33--55555-66666------|
|-00-11-44-33-00-11-44-33-------------------|
  .. .. .. .. .. .. .. ..
 Curtain call and the show starts !!


|-------------------------------------------|
|-------------------------------------------|
|-------------------------------------------|
|--------------------------22222-33333-<2>--|
|-00-11-44-33-00-11-44-33--00000-11111------|
|-00-11-44-33-00-11-44-33-------------------|
| .. .. .. .. .. .. .. ..
|
|
|
|-------------------------------------------|
|-------------------------------------------|
|-------------------------------------------|
|--------------------------77777-88888-<5>--|
|-00-11-44-33-00-11-44-33--55555-66666------|
|-00-11-44-33-00-11-44-33-------------------|
  .. .. .. .. .. .. .. ..
 Commonness and self-laceration


|-------------------------------------------|
|-------------------------------------------|
|-------------------------------------------|
|--------------------------22222-33333-<2>--|
|-00-11-44-33-00-11-44-33--00000-11111------|
|-00-11-44-33-00-11-44-33-------------------|
| .. .. .. .. .. .. .. ..
|
|
|
|-------------------------------------------|
|-------------------------------------------|
|-------------------------------------------|
|--------------------------77777-88888-<5>--|
|-00-11-44-33-00-11-44-33--55555-66666------|
|-00-11-44-33-00-11-44-33-------------------|
  .. .. .. .. .. .. .. ..
 Against the uncreasing hope of redemption


|-------------------------------------------|
|-------------------------------------------|
|-------------------------------------------|
|--------------------------22222-33333-<2>--|
|-00-11-44-33-00-11-44-33--00000-11111------|
|-00-11-44-33-00-11-44-33-------------------|
| .. .. .. .. .. .. .. ..
|
|
|
|-------------------------------------------|
|-------------------------------------------|
|-------------------------------------------|
|--------------------------77777-88888-<5>--|
|-00-11-44-33-00-11-44-33--55555-66666------|
|-00-11-44-33-00-11-44-33-------------------|
  .. .. .. .. .. .. .. ..
  Clowns - The masters of disguise!!



Pre Chorus 

 guitar 1
|-------------------------------------------------|
|-------------------------------------------------|
|-------------------------------------------------|
|--------------5~~-2/5/4---------------2~~-2/5/4--|
|-0~~----------6~~-3/6/5--0~~----------3~~-3/6/5--|
|-0~~-00-00-00------------0~~-00-00-00------------|
|     .. .. ..                .. .. ..
|
|
|guitar 2
|------------------------------------------------------|
|------------------------------------------------------|
|------------------------------------------------------|
|------------------------------------------------------|
|-0~~----------11~~-8/11/10--0~~----------8~~-8/11/10--|
|-0~~-00-00-00---------------0~~-00-00-00--------------|
      .. .. ..                   .. .. ..
    Are man`s prototype my fear of the future increases?

 
|-------------------------------------------------|
|-------------------------------------------------|
|-------------------------------------------------|
|--------------5~~-2/5/4---------------2~~-2/5/4--|
|-0~~----------6~~-3/6/5--0~~----------3~~-3/6/5--|
|-0~~-00-00-00------------0~~-00-00-00------------|
|     .. .. ..                .. .. ..
|
|
|
|------------------------------------------------------|
|------------------------------------------------------|
|------------------------------------------------------|
|------------------------------------------------------|
|-0~~----------11~~-8/11/10--0~~----------8~~-8/11/10--|
|-0~~-00-00-00---------------0~~-00-00-00--------------|
      .. .. ..                   .. .. ..
    Are man`s prototype my fear of the future increases?
  

  
Chorus

guitar 1
|----------------------------------------------------|
|----------------------------------------------------|
|----------------------------------------------------|
|-----333-222-----333-222-------333-222-----222-333--|
|-000---------000------------------------------------|
|---------------------------333---------222----------|
| ...         ...           ...         ...
|
|
|guitar 2
|----------------------------------------------------|
|----------------------------------------------------|
|----------------------------------------------------|
|----------------****Break****-----------------------|
|----------------------------------------------------|
|----------------------------------------------------|



|----------------------------------------------------|
|----------------------------------------------------|
|----------------------------------------------------|
|-----333-222-----333-222-------333-222-----222-333--|
|-000---------000------------------------------------|
|---------------------------333---------222----------|
| ...         ...           ...         ...
|
|
|
|----------------------------------------------------|
|----------------------------------------------------|
|----------------------------------------------------|
|-----888-777-----888-777-------888-777-----777-888--|
|-555---------555------------------------------------|
|---------------------------888---------777----------|
  ...         ...           ...         ...


|----------------------------------------------------|
|----------------------------------------------------|
|----------------------------------------------------|
|-----333-222-----333-222-------333-222-----222-333--|
|-000---------000------------------------------------|
|---------------------------333---------222----------|
| ...         ...           ...         ...
|
|
|
|----------------------------------------------------|
|----------------------------------------------------|
|----------------------------------------------------|
|-----888-777-----888-777-------888-777-----777-888--|
|-555---------555------------------------------------|
|---------------------------888---------777----------|
  ...         ...           ...         ...
        This arena is crowded with clowns


|----------------------------------------------------|
|----------------------------------------------------|
|----------------------------------------------------|
|-----333-222-----333-222-------333-222-----222-333--|
|-000---------000------------------------------------|
|---------------------------333---------222----------|
| ...         ...           ...         ...
|
|
|
|----------------------------------------------------|
|----------------------------------------------------|
|----------------------------------------------------|
|-----888-777-----888-777-------888-777-----777-888--|
|-555---------555------------------------------------|
|---------------------------888---------777----------|
  ...         ...           ...         ...
        Curtain call and the show starts


|----------------------------------------------------|
|----------------------------------------------------|
|----------------------------------------------------|
|-----333-222-----333-222-------333-222-----222-333--|
|-000---------000------------------------------------|
|---------------------------333---------222----------|
| ...         ...           ...         ...
|
|
|
|----------------------------------------------------|
|----------------------------------------------------|
|----------------------------------------------------|
|-----888-777-----888-777-------888-777-----777-888--|
|-555---------555------------------------------------|
|---------------------------888---------777----------|
  ...         ...           ...         ...
    Just one tear releases a violent river!!


Verse 2

 guitar 1
|-------------------------------------------|
|-------------------------------------------|
|-------------------------------------------|
|--------------------------22222-33333-<2>--|
|-00-11-44-33-00-11-44-33--00000-11111------|
|-00-11-44-33-00-11-44-33-------------------|
| .. .. .. .. .. .. .. ..
|
|
|guitar 2
|-------------------------------------------|
|-------------------------------------------|
|-------------------------------------------|
|--------------------------77777-88888-<5>--|
|-00-11-44-33-00-11-44-33--55555-66666------|
|-00-11-44-33-00-11-44-33-------------------|
  .. .. .. .. .. .. .. ..
 Curtain call and the show starts !!


|-------------------------------------------|
|-------------------------------------------|
|-------------------------------------------|
|--------------------------22222-33333-<2>--|
|-00-11-44-33-00-11-44-33--00000-11111------|
|-00-11-44-33-00-11-44-33-------------------|
| .. .. .. .. .. .. .. ..
|
|
|
|-------------------------------------------|
|-------------------------------------------|
|-------------------------------------------|
|--------------------------77777-88888-<5>--|
|-00-11-44-33-00-11-44-33--55555-66666------|
|-00-11-44-33-00-11-44-33-------------------|
  .. .. .. .. .. .. .. ..
 Commonness and self-laceration


|-------------------------------------------|
|-------------------------------------------|
|-------------------------------------------|
|--------------------------22222-33333-<2>--|
|-00-11-44-33-00-11-44-33--00000-11111------|
|-00-11-44-33-00-11-44-33-------------------|
| .. .. .. .. .. .. .. ..
|
|
|
|-------------------------------------------|
|-------------------------------------------|
|-------------------------------------------|
|--------------------------77777-88888-<5>--|
|-00-11-44-33-00-11-44-33--55555-66666------|
|-00-11-44-33-00-11-44-33-------------------|
  .. .. .. .. .. .. .. ..
 Against the uncreasing hope of redemption


|-------------------------------------------|
|-------------------------------------------|
|-------------------------------------------|
|--------------------------22222-33333-<2>--|
|-00-11-44-33-00-11-44-33--00000-11111------|
|-00-11-44-33-00-11-44-33-------------------|
| .. .. .. .. .. .. .. ..
|
|
|
|-------------------------------------------|
|-------------------------------------------|
|-------------------------------------------|
|--------------------------77777-88888-<5>--|
|-00-11-44-33-00-11-44-33--55555-66666------|
|-00-11-44-33-00-11-44-33-------------------|
  .. .. .. .. .. .. .. ..
  Clowns - The masters of disguise!!


Pre Chorus 2

 guitar 1
|-------------------------------------------------|
|-------------------------------------------------|
|-------------------------------------------------|
|--------------5~~-2/5/4---------------2~~-2/5/4--|
|-0~~----------6~~-3/6/5--0~~----------3~~-3/6/5--|
|-0~~-00-00-00------------0~~-00-00-00------------|
|     .. .. ..                .. .. ..
|
|
|guitar 2
|------------------------------------------------------|
|------------------------------------------------------|
|------------------------------------------------------|
|------------------------------------------------------|
|-0~~----------11~~-8/11/10--0~~----------8~~-8/11/10--|
|-0~~-00-00-00---------------0~~-00-00-00--------------|
      .. .. ..                   .. .. ..
    Are man`s prototype my fear of the future increases?

 
|-------------------------------------------------|
|-------------------------------------------------|
|-------------------------------------------------|
|--------------5~~-2/5/4---------------2~~-2/5/4--|
|-0~~----------6~~-3/6/5--0~~----------3~~-3/6/5--|
|-0~~-00-00-00------------0~~-00-00-00------------|
|     .. .. ..                .. .. ..
|
|
|
|------------------------------------------------------|
|------------------------------------------------------|
|------------------------------------------------------|
|------------------------------------------------------|
|-0~~----------11~~-8/11/10--0~~----------8~~-8/11/10--|
|-0~~-00-00-00---------------0~~-00-00-00--------------|
      .. .. ..                   .. .. ..
    Are man`s prototype my fear of the future increases?
  

Ending

|------------------------------------------------------------|
|------------------------------------------------------------|
|------------------------------------------------------------|
|------------------------------------------------------------|
|-------5h6------6h8-----8h9-----------5h6------6h8-----8h9--|
|-00000-----0000-----000---------00000-----0000-----000------|
  .....     ....     ...         .....     ....     ...
       

|------------------------------------------------------------|
|------------------------------------------------------------|
|------------------------------------------------------------|
|--------------------------------------------------2/5/4-----|
|-------5h6------6h8-----8h9-----------5h6--0-0-0--3/6/5-----|
|-00000-----0000-----000---------00000------0-0-0------------|
  .....     ....     ...         .....      . . .
  

|-------------------------------------------------------------------|
|-------------------------------------------------------------------|
|-------------------------------------------------------------------|
|-------------------------------------------------------------------|
|-0-0-0-0-5h6-0-0-0-0-6h8-0-0-8h9--0-0-0-0-5h6-0-0-0-0-6h8-0-0-8h9--|
|-0-0-0-0-----0-0-0-0-----0-0------0-0-0-0-----0-0-0-0-----0-0------|
  . . . .     . . . .     . .      . . . .     . . . .     . . 

|--------------------------------------------------------------|
|--------------------------------------------------------------|
|--------------------------------------------------------------|
|-----------------------------------------------------2/5/4-0--|
|-0-0-0-0-5h6-0-0-0-0-6h8-0-0-8h9--0-0-0-0-5h6-0-0-0--3/6/5-0--|
|-0-0-0-0-----0-0-0-0-----0-0------0-0-0-0-----0-0-0--------0--|
  . . . .     . . . .     . .      . . . .     . . .   
                                  





Comments


Popular Caliban tabs & chords
Arena Of Concealment Bass Tabs
Between The Worlds Bass Tabs
Certainty Corpses Bleed Cold Bass Tabs
Nothing Is Forever Bass Tabs
Nothing Is Forever 2 Bass Tabs
Certainty Corpses Bleed Cold Tabs
Dark Shadows 1 Tabs
Rise And Fight Intro Tabs
Seventh Soul Tabs
Together Alone Tabs


Song lyrics



↑ Back to top | Tablatures and chords are parodies/interpretations of the original songs. You may use it for private study, scholarship, research or language learning purposes only
© 2014 AZChords.com Contact us | Privacy policy | DMCA | Add/correct tabs | Request tabs | Top 50 tabs