» » »

Arena Of Concealment Bass tabs (ver.1)

Artists:  A B C D E F G H I J K L M N O P Q R S T U V W X Y Z # 

Arena Of Concealment Bass tabs (ver.1)

Caliban
Rating:
0/5 (0 votes)

Hard to play? Try these video lessons and learn fast.
                Tuning : Drop C   ( C G C F )



Intro
F|-------|
C|-------|
G|-------|
C|-0~~~~-|
                          x3                      x1
F|--------------------------|-----------------------|
C|---------(Wait)-----------|-----------------------|
G|--------------------------|---------------3-6-5---|
C|--------------------------|---------------------0-|

                          x3                    x1
F|--------------------------|---------------------|
C|---------(Wait)-----------|---------------------|
G|--------------------------|---------------3-6-5-|
C|--------------------------|---------------------|

Main Riff                 x3                    x1
F|--------------------------|---------------------|
C|--------------------------|---------------------|
G|------5h6------6h8----8h9-|------5h6------3-6-5-|
C|-0000-----0000-----00-----|-0000-----0000-------|

                          x3                    x1
F|--------------------------|---------------------|
C|--------------------------|---------------------|
G|------5h6------6h8----8h9-|------5h6------3-6-5-|
C|-0000-----0000-----00-----|-0000-----0000-------|

Chorus                               
F|-------------------------------------|
C|-------------------------------------|
G|-----------------00000000-1111111111-|
C|-0-1-4-3-0-1-3-4---------------------| (x4)

Verse                                     
F|-----------------------|-----------------------|
C|-----------------------|-----------------------|
G|-----------------------|-----------------------|
C|-0~~-000-000-3~~-0-4-3-|-0~~-000-000-1~~-1-4-3-| (x2)

Bridge
F|-------------------------|
C|-------------------------|
G|-------------------------|
C|-0-----------------------|

F|-------------------------|---|
C|-------------------------|---|
G|-0~~~~~------------------|---|
C|-------------3~~~~-2~/7--|-0-|

                         x4
F|-------------------------|---|
C|-------------------------|---|
G|-0~~~~~------------------|---|
C|-------------3~~~~-2~~~~-|-0-|

Chorus                               
F|-------------------------------------|
C|-------------------------------------|
G|-----------------00000000-1111111111-|
C|-0-1-4-3-0-1-3-4---------------------| (x4)

Verse                                      
F|-------------------------|-----------------------|
C|-------------------------|-----------------------|
G|-------------------------|-----------------------|
C|-0~~-000--000--3~~-0-4-3-|-0~~-000-000-1~~-1-4-3-| (x2)

Main Riff                 x3                    x1
F|--------------------------|---------------------|
C|--------------------------|---------------------|
G|------5h6------6h8----8h9-|------5h6------3-6-5-|
C|-0000-----0000-----00-----|-0000-----0000-------|

                          x3                      x1
F|--------------------------|-----------------------|
C|--------------------------|-----------------------|
G|------5h6------6h8----8h9-|------5h6------3-6-5---|
C|-0000-----0000-----00-----|-0000-----0000-------0-|
            
Hard to play? Try these video lessons and learn fast. | Correct




comments powered by Disqus
↑ Back to top | Tablatures and chords are parodies/interpretations of the original songs. You may use it for private study, scholarship, research or language learning purposes only