>
 >
Voices Of The Dead 1

Voices Of The Dead 1 Guitar Tabs

Calabrese - Voices Of The Dead 1 chords, tabs, tablatures, lyrics

Guitar lessons | Add/correct | Request | Top 50 tabs Artists:  A B C D E F G H I J K L M N O P Q R S T U V W X Y Z 0-9

Voices Of The Dead 1 Guitar Tabs – Calabrese

CD, Sheet music, Poster

Do you like Voices Of The Dead 1? Share with your friends now
TabsTabs v2
Cancion: Voices of the Dead
Grupo: Calabrese



Intro: 

|-------------------------------------------------------------| 
|-------------------------------------------------------------| 
|--7--7-7-7-------------6-7--7-7-7-----------10-10-10-9-9-9---| 
|--x--x-x-x---7-8-8-----x-x--x-x-x---7-8-8---x--x--x--x-x-x---| 
|--5--5-5-5---7-8-8-----4-5--5-5-5---7-8-8---8--8--8--7-7-7---| 
|-------------5-6-6------------------5-6-6--------------------| 


|--------------------------------------------| 
|--------------------------------------------| 
|--7--7-7-7-----------------------8-8-8-8-8--| 
|--x--x-x-x---7-8-8-8-----5-5-5---6-6-6-6-6--| 
|--5--5-5-5---7-8-8-8-----5-5-5--------------| 
|-------------5-6-6-6-----3-3-3--------------| 


Verse:

|----------------------------------------------| 
|----------------------------------------------| 
|--7--7-7-7-7-7-7-7----------------------------| 
|--7--7-7-7-7-7-7-7---8--8-8-8-8---5-5---7-7---| x3
|--5--5-5-5-5-5-5-5---8--8-8-8-8---5-5---7-7---| 
|---------------------6--6-6-6-6---3-3---5-5---| 
PM    .............      ....... 

|-------------------------------------------------------------|
|-------------------------------------------------------------|
|--7--7-7-7-7-7-7-7-------------------------------------------| 
|--7--7-7-7-7-7-7-7---8--8-8-8-8-8---5--5-5-5-5-5---7-7-7-7---|
|--5--5-5-5-5-5-5-5---8--8-8-8-8-8---5--5-5-5-5-5---7-7-7-7---|
|---------------------6--6-6-6-6-6---3--3-3-3-3-3---5-5-5-5---|
PM   ............. 

|------------------|
|------------------|
|------------------|
|--7-7-7-7-7-7-7---|
|--7-7-7-7-7-7-7---|
|--5-5-5-5-5-5-5---|
PM .............


Chorus: 

|--------------------------------------------------| 
|--------------------------------------------------| 
|--7-7-7-7---10-10-10-10-------------10-10---------| 
|--7-7-7-7---10-10-10-10---8-8-8-8---10-10---7-7---| 
|--5-5-5-5----8--8--8--8---8-8-8-8---8--8----7-7---| 
|--------------------------6-6-6-6-----------5-5---| 

|----------------------------------------------|
|----------------------------------------------|
|--7-7-7-7-------------10-10-10-10-------------|
|--7-7-7-7---8-8-8-8----x--x--x--x---7-7-7-7---|
|--5-5-5-5---8-8-8-8----8--8--8--8---7-7-7-7---|
|------------6-6-6-6-----------------5-5-5-5---|

|----------------------------------------------------------------------| 
|----------------------------------------------------------------------| 
|--7-7-7-7---5-5-5-5------------------7-7-7-7---5-5-5-5----------------| 
|--7-7-7-7---5-5-5-5--8-8-8-8-8-8-8---7-7-7-7---5-5-5-5---7--7-7-7-7---| 
|--5-5-5-5---3-3-3-3--8-8-8-8-8-8-8---5-5-5-5---3-3-3-3---7--7-7-7-7---| 
|---------------------6-6-6-6-6-6-6-----------------------5--5-5-5-5---| 


Intro. 


Verse 2: 

|----------------------------------------------| 
|----------------------------------------------| 
|--7--7-7-7-7-7-7-7----------------------------| 
|--7--7-7-7-7-7-7-7---8--8-8-8-8---5-5---7-7---| x2
|--5--5-5-5-5-5-5-5---8--8-8-8-8---5-5---7-7---| 
|---------------------6--6-6-6-6---3-3---5-5---| 
PM    .............      ....... 

|------------------------------------------------|
|------------------------------------------------|
|--7--7-7-7-7-7-7-7------------------------------| 
|--x--x-x-x-x-x-x-x---8--8-8-8-8-8---5-5---7-7---| 
|--5--5-5-5-5-5-5-5---8--8-8-8-8-8---5-5---7-7---|
|---------------------6--6-6-6-6-6---3-3---5-5---|
PM                       .........

|-------------------------------------------------------------|
|-------------------------------------------------------------|
|--7--7-7-7-7-7-7-7-------------------------------------------| 
|--x--x-x-x-x-x-x-x---8--8-8-8-8-8---5--5-5-5-5-5---7-7-7-7---| 
|--5--5-5-5-5-5-5-5---8--8-8-8-8-8---5--5-5-5-5-5---7-7-7-7---|
|---------------------6--6-6-6-6-6---3--3-3-3-3-3---5-5-5-5---|
PM                       .........      .........

|------------------|
|------------------|
|------------------|
|--7-7-7-7-7-7-7---|
|--7-7-7-7-7-7-7---|
|--5-5-5-5-5-5-5---|
PM .............


Chorus 


Break:
 
|-------------------------------------------------------------| 
|-------------------------------------------------------------| 
|--7--7-7-7-7-7-7---9-9-9---10-10-10---6--6-6-6-6-6-6-6-6-6---| 
|--x--x-x-x-x-x-x---x-x-x----x--x--x---x--x-x-x-x-x-x-x-x-x---| 
|--5--5-5-5-5-5-5---7-7-7----8--8--8---4--4-4-4-4-4-4-4-4-4---| 
|-------------------------------------------------------------| 

|--------------------------------------------------------------| 
|--------------------------------------------------------------| 
|--7--7-7-7-7-7-7---9-9-9---10-10-10---14--14-14-14-14-14-14---| 
|--x--x-x-x-x-x-x---x-x-x----x--x--x----x---x--x--x--x--x--x---|
|--5--5-5-5-5-5-5---7-7-7----8--8--8---12--12-12-12-12-12-12---| 
|--------------------------------------------------------------|
 
|---------------------------------------------------------|
|---------------------------------------------------------|
|--14-15-15-15-15-15-15---14---12--10---9---9-9-9-9-9-9---|
|---x--x--x--x--x--x--x----x----x---x---x---x-x-x-x-x-x---|
|--12-13-13-13-13-13-13---12---10---8---7---7-7-7-7-7-7---|
|---------------------------------------------------------|

|-----------------------------------------------------------|
|-----------------------------------------------------------|
|--14-15-15-15-15-15-15---14-15-15-17---17-17-17-17-17-17---|
|---x--x--x--x--x--x--x----x--x--x--x----x--x--x--x--x--x---|
|--12-13-13-13-13-13-13---12-13-13-15---15-15-15-15-15-15---|
|-----------------------------------------------------------|

|---------------------------| 
|---------------------------| 
|--18---18-18-18-18-18-18---| 
|---x----x--x--x--x--x--x---| 
|--16---16-16-16-16-16-16---| 
|---------------------------| 


|-------------------------------------------------|------|
|-------------------------------------------------|------|
|--7-7-7-7-7-7-7-7---7-7-6-6-6-6-6-5-5-5-5-5------|------|
|--7-7-7-7-7-7-7-7---x-x-x-x-x-x-x-x-x-x-x-x---x2-|--7---|
|--5-5-5-5-5-5-5-5---5-5-4-4-4-4-4-3-3-3-3-3------|--7---|
|--5-5-5-5-5-5-5-5--------------------------------|--5---|



Chorus 


Intro





Comments


Popular Calabrese tabs & chords
Backseat Of My Hearse Bass Tabs
Backseat Of My Hearse 2 Bass Tabs
Phantasmagoria Bass Tabs
Blood In My Eyes Tabs
Crizila Tabs
Death Of Me Tabs
Midnight Spookshow Tabs
Shrunken Head Kids Tabs
Shrunken Head Kids 1 Tabs
Voices Of The Dead Tabs


Song lyrics



↑ Back to top | Tablatures and chords are parodies/interpretations of the original songs. You may use it for private study, scholarship, research or language learning purposes only
© 2014 AZChords.com Contact us | Privacy policy | DMCA | Add/correct tabs | Request tabs | Top 50 tabs