>
 >
Voices Of The Dead

Voices Of The Dead Guitar Tabs

Calabrese - Voices Of The Dead chords, tabs, tablatures, lyrics

Guitar lessons | Add/correct | Request | Top 50 tabs Artists:  A B C D E F G H I J K L M N O P Q R S T U V W X Y Z 0-9

Voices Of The Dead Guitar Tabs – Calabrese

CD, Sheet music, Poster

Do you like Voices Of The Dead? Share with your friends now
TabsTabs v2
Band: Calabrese



Intro. 

|--------------------------------------------------------------| 
|--------------------------------------------------------------| 
|--7--7-7-7-----------------6-7---7--7-7-7--------10-10-10--9--| 
|--x--x-x-x---7-8---8-8-8---x-x---x--x-x-x---7-8--x--x---x--x--| 
|--5--5-5-5---7-8---6-6-6---4-5---5--5-5-5---7-8--8--8---8--7--| 
|-------------5-6---6-6-6--------------------5-6---------------| 


|-------------------------------------------------| 
|---------------------------------------8-8-8-8---| 
|--7--7-7-7-----------------------------8-8-8-8---| 
|--x--x-x-x---7-8---8-8-8---5-5-5-5-5---6-6-6-6---| 
|--5--5-5-5---7-8---8-8-8---5-5-5-5-5-------------| 
|-------------5-6---6-6-6---3-3-3-3-3-------------| 


Verse <<<< 4 times 

|---------------------------------------------| 
|---------------------------------------------| 
|---7--7-7-7-7--------------------------------| 
|---7--7-7-7-7--8--8-8-8--5--5-5-5--7--7-7-7--| 
|---5--5-5-5-5--8--8-8-8--5--5-5-5--7--7-7-7--| 
|---------------6--6-6-6--3--3-3-3--5--5-5-5--| 
........... ....... ....... ........ 

enter Chorus with this: 

|--------| 
|--------| 
|--------| 
|-7-7-7--| 
|-7-7-7--| 
|-5-5-5--| 
......... 
Chorus: 

|----------------------------------------------------------| 
|----------------------------------------------------------| 
|--7-7-7-7--10-10-10-10----------10-10-10------------------| 
|--7-7-7-7--10-10-10-10---8-8-8--10-10-10-----10-10-10-10--| 
|--5-5-5-5---8---8--8--8--8-8-8--8---8--8-----10-10-10-10--| 
|-------------------------6-6-6---------------8---8--8--8--| <<< 2 times 

|-----------------------------------------------------------| 
|-----------------------------------------------------------| 
|--7-7-7-7---5-5-5-5-----------7-7-7-7---5-5-5-5------------| 
|--7-7-7-7---5-5-5-5--8-8-8-8--7-7-7-7---5-5-5-5--7-7-7-7---| 
|--5-5-5-5---3-3-3-3--8-8-8-8--5-5-5-5---3-3-3-3--7-7-7-7---| 
|---------------------6-6-6-6---------------------5-5-5-5---| 
........... 

Intro. 

Verse 2: 

|--------------------------------------------| 
|--------------------------------------------| 
|---7-7-7-7-7--------------------------------| 
|---x-x-x-x-x--8--8-8-8--5--5-5-5--7--7-7-7--| 
|---5-5-5-5-5--8--8-8-8--5--5-5-5--7--7-7-7--| 
|--------------6--6-6-6--3--3-3-3--5--5-5-5--| 
....... ........ ........ 


Chorus 


Breakdown or whatever you wanna call it  

|---------------------------| 
|---------------------------| 
|--7-7-7-----9---10--6-6-6--| 
|--x-x-x-----x---x---x-x-x--| 
|--5-5-5-----7---8---4-4-4--| 
|---------------------------| 

|-----------------------------------------------------------| 
|-----------------------------------------------------------| 
|--7-7-7-----9---10---14--14---14----15--15--15--14--12--9--| 
|--x-x-x-----x---x-----x---x----x-----x---x---x---x---x--x--| 
|--5-5-5-----7---8----12---12--12----13--13--13--12--10--7--| 
|-----------------------------------------------------------| 

|-------------------------------|---------------|-------| 
|-------------------------------|---------------|-------| 
|--15--15--14--15--17--18-------|--7-7-7--6--5--|-------| 
|---x---x---x---x---x---x-------|--7-7-7--x--x--|---7---| 
|--13--13--12--13--15--16-------|--5-5-5--4--3--|---7---| 
|-------------------------------|--5-5-5--------|---5---| 


Chorus 

Intro





Comments


Popular Calabrese tabs & chords
Backseat Of My Hearse 2 Bass Tabs
Resurrection Bass Tabs
Backseat Of My Hearse Tabs
Blood In My Eyes Tabs
Come Alive Tabs
Midnight Spookshow Tabs
Midnight Spookshow 1 Tabs
One Of Us Tabs
Shrunken Head Kids 1 Tabs
Vampires Don't Exist Tabs


Song lyrics



↑ Back to top | Tablatures and chords are parodies/interpretations of the original songs. You may use it for private study, scholarship, research or language learning purposes only
© 2014 AZChords.com Contact us | Privacy policy | DMCA | Add/correct tabs | Request tabs | Top 50 tabs