» » »

Backseat Of My Hearse Bass tabs (ver.1)

Artists:  A B C D E F G H I J K L M N O P Q R S T U V W X Y Z # 

Backseat Of My Hearse Bass tabs (ver.1)

Calabrese
Rating:
3/5 (3 votes)

Hard to play? Try these video lessons and learn fast.
                "Backseat of My Hearse" by Calabrese
Tuning: (E A D G) standard

Intro x2
G|-----------------------------------------------------------------|
D|-----6-6-5-5-------------3-3---------6-6-5-5-------------4-4-----|
A|-3-3---------6-6-3-3-6-6-----5-5-3-3---------6-6-3-3-6-6-----5-5-|
E|-----------------------------------------------------------------|

Verse (Bobby) x2
G|---------------------------------------------------------|
D|---------------------------------------------------------|
A|-----------------------------8-8-8-8-8-8-8-8-8-8-8-8-8-8-|
E|-5-5-5-5-5-5-5-5-5-5-5-5-5-5-----------------------------|

G|--------------------------------------------------------------|
D|--------------------------------------------------------------|
A|-7-7-7-7-7-7-7-7-7-7-7-7-7-7--6-6-7-7-9-9-7-7-6-6-7-7-9-9-7-7-|
E|--------------------------------------------------------------|

Chorus
G|---------------------------------------------------------|
D|---------------------------------------------------------|
A|-----------------------------5-5-5-5-5-5-5-5-5-5-5-5-5-5-|
E|-5-5-5-5-5-5-5-5-5-5-5-5-5-5-----------------------------|

G|-----------------------------|
D|-----------------------------|
A|-3-3-3-3-3-3-3-3-3-3-3-3-3-3-|
E|-----------------------------|

G|-------------------------------------------------|
D|-------------------------------------------------|
A|-2-2-2-2-2-2-2-2-2-2-2-2-2-2-2-2-2-2-2-2-2-2-2-2-|
E|-------------------------------------------------|

Intro x2

Verse (Jimmy) x2
G|-------------------------------------------------------|
D|-------------------------------------------------------|
A|-7-7-7-7-7-7-7-7-7-7-7-7-7-8-8-8-8-8-8-8-8-8-8-8-8-8-8-|
E|-------------------------------------------------------|

G|---------------------------------------------------|
D|---------------------------------------------------|
A|---------------------------------------------------|
E|-5-5-5-5-5-5-5-5-5-5-5-5-5-5-5-5-5-5-5-5-5-5-5-5-5-|

Chorus

Intro

Bridge 
G|---------------------------------------------------|x4
D|---------------------------------------------------|
A|-----------------3---2---3---2---------------------|
E|-5---4---5---4-------------------------------------|

G|---------------------------------------------------|x2
D|---------------------------------------------------|
A|-----5---3---2-2-2-2-2-------5---3---2-2-2-2-2-----|
E|-5-----------------------5-------------------------|

Chorus x2

Outro (same as Chorus) x2
            
Hard to play? Try these video lessons and learn fast. | Correct




comments powered by Disqus
↑ Back to top | Tablatures and chords are parodies/interpretations of the original songs. You may use it for private study, scholarship, research or language learning purposes only