>
 >
Backseat Of My Hearse

Backseat Of My Hearse Guitar Tabs

Calabrese - Backseat Of My Hearse chords, tabs, tablatures, lyrics

Guitar lessons | Add/correct | Request | Top 50 tabs Artists:  A B C D E F G H I J K L M N O P Q R S T U V W X Y Z 0-9

Backseat Of My Hearse Guitar Tabs – Calabrese

CD, Sheet music, Poster

Do you like Backseat Of My Hearse? Share with your friends now
Bass TabsBass Tabs v2Tabs
CALABRESE - BACKSEAT OF MY HEARSE


Tuning: Standard (E A D G B E)

Follow along with the song for the rythmn changes

Intro
E|-------------------------------------------------------------------||
B|-------------------------------------------------------------------||
G|-------------------------------------------------------------------||
D|-------------------------------------------------------------------||
A|-----8-8-7-7-------------5-5---------8-8-7-7-------------6-6-------||
E|-5-5---------8-8-5-5-8-8-----7-7-5-5---------8-8-5-5-8-8-----7-7---||

E|-------------------------------------------------------------------||
B|-------------------------------------------------------------------||
G|-------------------------------------------------------------------||
D|-------------------------------------------------------------------||
A|-----8-8-7-7-------------5-5---------8-8-7-7-------------6-6-------||
E|-5-5---------8-8-5-5-8-8-----7-7-5-5---------8-8-5-5-8-8-----7-7---||

Verse
E|-------------------------------------------------------------------||
B|-------------------------------------------------------------------||
G|-----------------------------10-10--10-10-10--10-10-10--10-10-10---||
D|-7-7--7-7-7--7-7-7--7-7-7--7-10-10--10-10-10--10-10-10--10-10-10---||
A|-7-7--7-7-7--7-7-7--7-7-7--7-8--8---8--8--8---8--8--8---8--8--8----||
E|-5-5--5-5-5--5-5-5--5-5-5--5---------------------------------------||

E|-------------------------------------------------------------------||
B|-------------------------------------------------------------------||
G|-10-9-9--9-9-9--9-9-9--9-9-9--9-9-9--9-9-9--9-9-9--9-9-9-----------||
D|-10-9-9--9-9-9--9-9-9--9-9-9--9-9-9--9-9-9--9-9-9--9-9-9--(repeat)-||
A|-8--7-7--7-7-7--7-7-7--7-7-7--7-7-7--7-7-7--7-7-7--7-7-7-----------||
E|-------------------------------------------------------------------||

Chorus
E|---------------------------------||
B|---------------------------------||
G|-----7---5---4-------------------||
D|-7---7---5---4-------------------||
A|-7---5---3---2-------------------||
E|-5-------------------------------||

Transition
E|-------------------------------------------------------------------||
B|-------------------------------------------------------------------||
G|-------------------------------------------------------------------||
D|-------------------------------------------------------------------||
A|-----8-8-7-7-------------5-5---------8-8-7-7-------------6-6-------||
E|-5-5---------8-8-5-5-8-8-----7-7-5-5---------8-8-5-5-8-8-----7-7---||

E|-------------------------------------------------------------------||
B|-------------------------------------------------------------------||
G|-------------------------------------------------------------------||
D|-------------------------------------------------------------------||
A|-----8-8-7-7-------------5-5---------8-8-7-7-------------6-6-------||
E|-5-5---------8-8-5-5-8-8-----7-7-5-5---------8-8-5-5-8-8-----7-7---||

Verse 2
E|-------------------------------------------------------------------||
B|-------------------------------------------------------------------||
G|-9-9--9-9-9--9-9-9--9-9-9---9-10-10--10-10-10--10-10-10--10-10-10--||
D|-9-9--9-9-9--9-9-9--9-9-9---9-10-10--10-10-10--10-10-10--10-10-10--||
A|-7-7--7-7-7--7-7-7--7-7-7---7-8--8---8--8--8---8--8--8---8--8--8---||
E|-------------------------------------------------------------------||
   PM...........          PM...........
E|-------------------------------------------------------------------||
B|-------------------------------------------------------------------||
G|---------------9---10----------------------------------------------||
D|-7-------------9---10---7------------------------------------------||
A|-7-------------7---8----7------------------------------------------||
E|-5-------------7---8----5------------------------------------------||

Chorus 2
E|---------------------------------||
B|---------------------------------||
G|-----7---5---4-------------------||
D|-7---7---5---4-------------------||
A|-7---5---3---2-------------------||
E|-5-------------------------------||

Transition 2 - Guitar 1
E|-------------------------------------------------------------------||
B|-------------------------------------------------------------------||
G|-------------------------------------------------------------------||
D|-------------------------------------------------------------------||
A|-----8-8-7-7-------------5-5---------8-8-7-7-------------6-6-------||
E|-5-5---------8-8-5-5-8-8-----7-7-5-5---------8-8-5-5-8-8-----7-7---||

E|-------------------------------------------------------------------||
B|-------------------------------------------------------------------||
G|-------------------------------------------------------------------||
D|-------------------------------------------------------------------||
A|-----8-8-7-7-------------5-5---------8-8-7-7-------------6-6-------||
E|-5-5---------8-8-5-5-8-8-----7-7-5-5---------8-8-5-5-8-8-----7-7---||

Transition 2 - Guitar 2 (comes in halfway through)
E|-------------------------------------------------------------------||
B|-------------------------------------------------------------------||
G|-------------------------------------------------------------------||
D|-----10-10-9-9-----------------8-8---------------------------------||
A|-7-7-----------10-10-7-7-10-10-----9-9-----------------------------||
E|-------------------------------------------------------------------||

Bridge
E|-------------------------------------------------------------------||
B|-------------------------------------------------------------------||
G|-----------------5---4---5---4-------------------------------------||
D|-7---6---7---6---5---4---5---4-------------------------------------||
A|-7---6---7---6---3---2---3---2-------------------------------------||
E|-5---4---5---4-----------------------------------------------------||

Chorus 3
E|-------------------------------------------------------------------||
B|-------------------------------------------------------------------||
G|-----7---5---4-------7---5---4-------------------------------------||
D|-7---7---5---4---7---7---5---4-------------------------------------||
A|-7---5---3---2---7---5---3---2-------------------------------------||
E|-5---------------5-------------------------------------------------||

Outro
E|-------------------------------------------------------------------||
B|-------------------------------------------------------------------||
G|----9\7----9\5----7\4-------9\7----9\5----7\4/5/7\5\4/5\4/5--------||
D|-7-----------------------7----------------------------------7------||
A|-7--7\5----7\3----5\2----7--7\5----7\3----5\2/3/5\3\2/3\2/3-7------||
E|-5-----------------------5----------------------------------5------||





Comments


Popular Calabrese tabs & chords
Backseat Of My Hearse 2 Bass Tabs
Blood In My Eyes Bass Tabs
Phantasmagoria Bass Tabs
Your Ghost Bass Tabs
Come Alive Tabs
Every Day's A Funeral Tabs
Midnight Spookshow Tabs
One Of Us Tabs
Voices Of The Dead Tabs
Zombie I Tabs


Song lyrics



↑ Back to top | Tablatures and chords are parodies/interpretations of the original songs. You may use it for private study, scholarship, research or language learning purposes only
© 2014 AZChords.com Contact us | Privacy policy | DMCA | Add/correct tabs | Request tabs | Top 50 tabs