>
 >
No Dejes Que.... 1

No Dejes Que.... 1 Guitar Tabs

Caifanes - No Dejes Que.... 1 chords, tabs, tablatures, lyrics

Guitar lessons | Add/correct | Request | Top 50 tabs Artists:  A B C D E F G H I J K L M N O P Q R S T U V W X Y Z 0-9

No Dejes Que.... 1 Guitar Tabs – Caifanes

CD, Sheet music, Poster

Do you like No Dejes Que.... 1? Share with your friends now
ChordsChords v2TabsTabs v2
send me a mail
(INTRO)
   D         G     A      D              G         A
E|------------------------------------------------------------------14------|
B|-5/7-7-5---8-------------7/5-5/7--5----7/5--8---10--12--14-14-12----15----|
G|---------7---6-7-6------------------7------7---------------------14-------|
D|-0-----------------9-7-7--------------------------------------------------|
A|--------------------------------------------------------------------------|
E|--------------------------------------------------------------------------|

verse
D                  G       A
  Cuando veo a traves del vaso,
D          G         A
  Veo a traves del tiempo;
F#m             G           A
  Donde los sentidos se dislocan,
F#m            G            A
  Donde los temores se evaporan.

D               G        A
  Y aprovecho para desdoblarme...

F        C      G
  Y no se por que
F          C               G
  No me importa saber por que.
chorus
G
No dejes que
              Am
Nos coma el diablo, amor,
              Bm
Que se trague tu calor,
          C
Que eructe mi dolor.

(after the chorus)
E ------10----------------|
B -5/7----10---7--5-------| then the verse
G ------------------7-----|
D ------------------------|
A ------------------------|
E ------------------------|

       (SOLO)
E-----10--------------10-12-12/14-^14-14-14/12-12-12/10-10-10/9-9--9--9/-7-7-|
B-5/7---10-7-5------10-----------------------------------------10-10-10/-9-9-|
G-------------7-7/11---------------------------------------------------------|
D----------------------------------------------------------------------------|
A----------------------------------------------------------------------------|
E----------------------------------------------------------------------------|

E-7------------------------------------------------------------7-7-7/-9--9--|
B-9/8-8~7~5~7-7/5-7--7-7-5-5-5---------------------------------8-8-8/10-10--|
G----------------7---7-7-6-6-6---6---6---6-7-6-------9-9-6-7-7--------------|
D-------------------------------7-9-7-9-7-----7/4--4/-----------------------|
A---------------------------------------------------------------------------|
E---------------------------------------------------------------------------|

E--9/7-7-7/5-5-5/3-3-3-----9---9---9--------------------10----------------12-|
B-10/8-8-8/7-7-7/5-5-5---10---10--10-----------------------------------------|
G---------------------5/11---11--11--11-11-11-11/12-12-12-12-12-12/14-14-14--|
D----------------------------------------------------------------------------|
A----------------------------------------------------------------------------|
E----------------------------------------------------------------------------|

verse:
D                 G        A
  Cuando veo a traves del humo...

F
  Y no se por que...
chorus
G
  No dejes que...


mary i love you





Comments


Popular Caifanes tabs & chords
Celula Explota Chords
Celula Que Explota Chords
La Celula Que Explota 1 Tabs
La Negra Tomasa 1 Tabs
No Dejes Que.... Tabs
Nubes Tabs
Viento 1 Tabs
Afuera Ukulele
Detras De Ti Ukulele
No Dejes Que Ukulele


Song lyrics



↑ Back to top | Tablatures and chords are parodies/interpretations of the original songs. You may use it for private study, scholarship, research or language learning purposes only
© 2014 AZChords.com Contact us | Privacy policy | DMCA | Add/correct tabs | Request tabs | Top 50 tabs