» » »

Caifanes, La Negra Tomasa Bass tabs (ver.1)

Artists:  A B C D E F G H I J K L M N O P Q R S T U V W X Y Z # 

La Negra Tomasa Bass tabs (ver.1)

Caifanes Tabs
 Rating:
4/5 (4 votes)
La Negra Tomasa lessons Tabs too difficult? Try these video lessons and learn fast
                Intro:
G|-------|
D|-------|
A|--5----|
E|-------|

E|--------|---------|
D|------7-|---------|
A|--5-8---|-5-0--3--|x3
E|--------|---------|

G|--------|------------|
D|------7-|---7h9\7----|
A|--5-8---|-5-------8--|
E|--------|------------|

Estoy tan enamorado de la negra tomasa
G|----|-------|-------|-------|------|
D|----|-------|-------|-------|------|
A|--5-|-0-3-5-|-0-3-5-|-5-3-0-|-4-7--|
E|----|-------|-------|-------|------|

que cuando se va de casa triste me pongo
D|----|-------|---------|-------|------|
G|----|-------|---------|-------|------|
A|----|-4-7---|--4-74---|-4-7-5-|-0-3--|
E|--5-|-----5-|-5----5-|-------|------|

Estoy tan enamorado la negra tomasa
D|----|-------|-------|-------|------|
G|----|-------|-------|-------|------|
A|--5-|-0-3-5-|-0-3-5-|-5-3-0-|-4-7--|
E|----|-------|-------|-------|------|

Que cuando se va de casa triste me pongo
G|----|-------|-------|-------|------|
D|----|-------|-------|-------|------|
A|----|-4-7---|-4-7---|-4-7-5-|-0-3--|
E|--5-|-----5-|-----5-|-------|------|

G|----|-------|--------|---------|-------|
D|----|-------|-----3--|---------|---3---|
A|--5-|-0-3-5-|-5—3--5-|-5-0-3-5-|-5--3--|
E|----|-------|--------|---------|-------|

Estoy tan enamorado de mi negra preciosa
G|----|-------|---------|-------|--------|
E|----|-------|---------|-------|--------|
A|--5-|-0-3-5-|-5-0-3-5-|-5-3-0-|-0-4-7--|
D|----|-------|---------|-------|--------|

que cuando se va de casa triste me pongo
G|----|-------|-------|-------|------|
D|----|-------|-------|-------|------|
A|----|-4-7---|-4-7---|-4-7-5-|-0-3--|
E|--5-|-----5-|-----5-|-------|------|



Estoy tan enamorado de mi negra preciosa
D|----|-------|---------|---------|------|
G|----|-------|---------|---------|------|
A|--5-|-0-3-5-|-5-0-3-5-|-5-3-7-0-|-4-7--|
E|----|-------|---------|---------|------|


que cuando se va de casa triste me pongo
D|----|-------|---------|-------|---------|
G|----|-------|---------|-------|---------|
A|----|-4-7---|--4-74---|-4-7-5-|-00-5-0--|
E|--5-|-----5-|-5-----5-|-------|---------|

Ay ay ay

Ay ay ay
D|----|---|---|---------|
G|----|---|---|---------|
A|--3-|-1-|-0-|----000--|
E|----|---|---|-00------|

Esa negra linda me tiene loco
D|----|------|------|------|------|------|------|-------|
G|----|------|------|------|------|------|------|-------|
A|----|-77---|-77-5-|----5-|-57---|-77---|-77-5-|----5--|
E|--5-|----5-|------|-55---|---5--|----5-|------|-55----|


Esa negra linda que me tiene loco
D|------|------|------|------|------|------|------|----------|
G|------|------|------|------|------|------|------|----------|
A|--57--|-57---|-77-5-|---5--|-57---|-77---|-77-5-|-------5--|
E|----5-|----5-|------|-55---|---5--|----5-|------|-5-5-5----|

02:04
G|-------|
D|-------|
A|--5----|
E|-------|

02:08
D|-----|-------|--------|--------|-------|-------|---------|-------|
G|-----|-------|--------|--------|-------|-------|---------|-------|
A|--05-|-7-8-5-|-500-35-|-57-530-|-4-7---|-4-7---|--4-74---|-4-7-5-|
E|-----|-------|--------|--------|-----5-|-----5-|-5-----5-|-------|

G|----|--------|-------|--------|--------|--------|--------|--------|
D|-------|-3-3-|-------|--------|--------|--------|--------|--------|
A|-503-5-|--5--|-703-5-|-57-530-|--4-7---|--4-7---|--44-7--|--77-5--|
E|-------|-----|-------|--------|-5----5-|-5----5-|-5----5-|-5------|

           ay ay ay

D|-----------|---|---|---------|
G|-----------|---|---|---------|
A|--00-5-0-3-|-1-|-0-|----000--|
E|-----------|---|---|-00------|


Esa negra linda me tiene loco, que me come poquito a poco

G|----|------|------|------|------|------|------|-------|
D|----|------|------|------|------|------|------|-------|
A|----|-77---|-77-5-|----5-|-57---|-77---|-77-5-|----5--|
E|--5-|----5-|------|-55---|----5-|----5-|------|-55----|


Esa negra linda que me tiene loco

D|---------|------|------|------|------|------|------|-------|
G|---------|------|------|------|------|------|------|-------|
A|--5575---|-77---|-77-5-|----5-|-57---|-77---|-77-5-|----5--|
E|-------5-|----5-|------|-55---|----5-|----5-|------|-55----|

Lalalala
D|---------|------|------|------|------|------|------|-------|
G|---------|------|------|------|------|------|------|-------|
A|--5575---|-77---|-77-5-|----5-|-57---|-77---|-77-5-|----5--|
E|-------5-|----5-|------|-55---|----5-|----5-|------|-55----|

lalalala
D|-------|------|------|------|------|------|------|----------|
G|-------|------|------|------|------|------|------|----------|
A|--57---|-77---|-77-5-|----5-|-57---|-77---|-77-5-|-------5--|
E|-----5-|----5-|------|-55---|----5-|----5-|------|-5-5-5----|
            
Submit corrections

comments powered by Disqus
↑ Back to top | Caifanes Bass for La Negra Tomasa. Lyrics for acoustic guitar and electric guitar. Tablatures and chords are parodies/interpretations of the original songs. You may use it for private study, scholarship, research or language learning purposes only