>
 >
Avientame 1

Avientame 1 Guitar Tabs

Caifanes - Avientame 1 chords, tabs, tablatures, lyrics

Guitar lessons | Add/correct | Request | Top 50 tabs Artists:  A B C D E F G H I J K L M N O P Q R S T U V W X Y Z 0-9

Avientame 1 Guitar Tabs – Caifanes

CD, Sheet music, Poster

Do you like Avientame 1? Share with your friends now
TabsTabs v2Tabs v3
BUENO ESTA ROLA SE LA DEDICO A TODA LA BANDA CAIFAN Y JAGUAR.SOBRE TODO A MIS
VERDADERO AMIGOS (KATHY,EL POLLO,LIZ,IVONNE,GERARDO,ISRAEL,BENJAMIN,EL CHILENO
Y DENNISE)Y A MIS PRIMOS.

INTRO
  A5             B5             C5             B5
 4/4
  Gtr I
|--------------|--------------|--------------|-------------|
|--------------|--------------|--------------|-------------|
|-2---2---(2)--|-4---4---(4)--|-5---5---(5)--|-4---4---(4)-|
|-2---2---(2)--|-4---4---(4)--|-5---5---(5)--|-4---4---(4)-|
|-0---0---(0)--|-2---2---(2)--|-3---3---(3)--|-2---2---(2)-|
|--------------|--------------|--------------|-------------|

    A5             B5             C5             B5
||---------------|--------------|--------------|---------------|
||o--------------|--------------|--------------|---------------|
||--2---2---(2)--|-4---4---(4)--|-5---5---(5)--|-4---4---(4)---|
||--2---2---(2)--|-4---4---(4)--|-5---5---(5)--|-4---4---(4)---|
||o-0---0---(0)--|-2---2---(2)--|-3---3---(3)--|-2---2---(2)---|
||---------------|--------------|--------------|---------------|

 Verso
|---------|-------------------|-------------------|--------------------|
|---------|-------------------|-------------------|--------------------|
|---------|---4-5---4-5---4---|---4-5-4-7-5-4-5-4-|---4-5-4-7-5-4-5-4--|
|---------|-7-----7-----7---5-|-7-----------------|-7------------------|
|---------|-------------------|-------------------|--------------------|
|---------|-------------------|-------------------|--------------------|

|-------------------|-------------------|
|-------------------|-------------------|
|---4-5---4-5---4---|---4-5---4-5---4---|
|-7-----7-----7---5-|-7-----7-----7---5-|
|-------------------|-------------------|
|-------------------|-------------------|

|-------------------|-------------------|
|-------------------|-------------------|
|---4-5-4-7-5-4-5-4-|---4-5-4-7-5-4-5-4-|
|-7-----------------|-7-----------------|
|-------------------|-------------------|
|-------------------|-------------------|

|-------------------|-------------------|
|-------------------|-------------------|
|---4-5---4-5---4---|---4-5---4-5---4---|
|-7-----7-----7---5-|-7-----7-----7---5-|
|-------------------|-------------------|
|-------------------|-------------------|

                      1.----------------
|-------------------|-------------------|
|-------------------|-------------------|
|---4-5-4-7-5-4-5-4-|---4-5-4-7-5-4-5-4-|
|-7-----------------|-7-----------------|
|-------------------|-------------------|
|-------------------|-------------------|

---------------------------------------- 3x
|-------------------|--------------------||
|-------------------|-------------------o||
|---4-5---4-5---4---|---4-5---4-5---4----||
|-7-----7-----7---5-|-7-----7-----7---5--||
|-------------------|-------------------o||
|-------------------|--------------------||

  2.---------------------------------------------------------/
|-------------------|-------------------|--------------------||
|---------5-6-5-----|-------------------|--------------------||
|---4-5-4-------7-5-|---4-5---4-5---4---|---4-5---4-5---4----||
|-7-----------------|-7-----7-----7---5-|-7-----7-----7---5--||
|-------------------|-------------------|--------------------||
|-------------------|-------------------|--------------------||

|--------------|--------------|--------------|--------------|
|--------------|--------------|--------------|--------------|
|-2---2---(2)--|-4---4---(4)--|-5---5---(5)--|-4---4---(4)--|
|-2---2---(2)--|-4---4---(4)--|-5---5---(5)--|-4---4---(4)--|
|-0---0---(0)--|-2---2---(2)--|-3---3---(3)--|-2---2---(2)--|
|--------------|--------------|--------------|--------------|

   Coro
    A5         F5         G5
||-----------|----------|----------|--------|
||o----------|----------|----------|--------|
||--2--------|----------|----------|--------|
||--2--------|-3--------|-5--------|-(5)----|
||o-0--------|-3--------|-5--------|-(5)----|
||-----------|-1--------|-3--------|-(3)----|

  A5         C5         G5
|----------|----------|----------|---------||
|----------|----------|----------|--------o||
|-2--------|-5--------|----------|---------||
|-2--------|-5--------|-5--------|-(5)-----||
|-0--------|-3--------|-5--------|-(5)----o||
|----------|----------|-3--------|-(3)-----||

 Guitar Solo
  A5                  F5
  Gtr II
   |                   |
   /                   /

   ~~~~~~~~~~          ~~~~~~~~~~
|-------------------|-------------------|
|-12----(12)-12-13--|-13----(13)-12-13--|
|-12----(12)--------|-14----(14)--------|
|-------------------|-------------------|
|-------------------|-------------------|
|-------------------|-------------------|

  G5
   |             |
   /             /

   ~~      ~
|-------------|-------------12-------------|
|-12---8-8-8--|-12-13-15-12----15-13-12-13-|
|-12---9-9-9--|----------------------------|
|-------------|----------------------------|
|-------------|----------------------------|
|-------------|----------------------------|

  A5
   |
   /

   ~~              ~~
|-------------------------|
|-13---(13)----12-13------|
|-----------14---------14-|
|-------------------------|
|-------------------------|
|-------------------------|

  C5                                         G5
   |                                          |
   /                                          /

                                              ~~        ~~
|----------------------12------------------|---------------------|
|-12-13-12-13-15-13-15----15-13-12-13-(13)-|-17--------15--------|
|------------------------------------------|-12--12-12-12--12-12-|
|------------------------------------------|---------------------|
|------------------------------------------|---------------------|
|------------------------------------------|---------------------|

                        A5              F5              G5
   |                    |               |               |
   /                    /               /               /

   ~~        ~~
|---------------------|-5-7--5-7-5-7--|-7-8--7-8-7-8--|-8-10--8-10-8-10--|
|-13--------12--------|-5-5--5-5-5-5--|-6-6--6-6-6-6--|-8--8--8--8-8--8--|
|-12--12-12-12--12-12-|---------------|---------------|------------------|
|---------------------|---------------|---------------|------------------|
|---------------------|---------------|---------------|------------------|
|---------------------|---------------|---------------|------------------|

                        A5
   |                    |
   /                    /

                             ~~     ~~
|-10-12--10-12-10-12--|-----12-----10----------|
|-12-12--12-12-12-12--|-------------------10-9-|
|---------------------|-9-9----9-9----9-9------|
|---------------------|------------------------|
|---------------------|------------------------|
|---------------------|------------------------|

  C5
   |
   /

|----------------------10----10-13-12-12-12-12-10--|
|-10-12-10-12-13-12-13----13-----------------------|
|--------------------------------------------------|
|--------------------------------------------------|
|--------------------------------------------------|
|--------------------------------------------------|

  G5
   |
   /

|-10-10-10-8-8-8-7-7-7-0-0-10-(10)-0-0--8-|
|----------------------0-0-12-(12)-0-0-10-|
|-----------------------------------------|
|-----------------------------------------|
|-----------------------------------------|
|-----------------------------------------|

    |
    /
                               ~~~~~~
|--(8)-0-0-7-(7)-0-0-5-(5)-0-0-5-(5)-||
|-(10)-0-0-8-(8)-0-0-7-(7)-0-0-5-(5)-||
|------------------------------------||
|------------------------------------||
|------------------------------------||
|------------------------------------||

 Verso
   ~~~
|-(5)--------|---------|---------|-----|
|-(5)--------|---------|---------|-----|
|------------|---------|---------|-----|
|------------|---------|---------|-----|
|------------|---------|---------|-----|
|------------|---------|---------|-----|

|---------|---------|-------------------|-------------------|
|---------|---------|-------------------|-------------------|
|---------|---------|---4-5-4-7-5-4-5-4-|---4-5-4-7-5-4-5-4-|
|---------|---------|-7-----------------|-7-----------------|
|---------|---------|-------------------|-------------------|
|---------|---------|-------------------|-------------------|

|-------------------|-------------------|
|-------------------|-------------------|
|---4-5---4-5---4---|---4-5---4-5---4---|
|-7-----7-----7---5-|-7-----7-----7---5-|
|-------------------|-------------------|
|-------------------|-------------------|

|-------------------|-------------------|
|-------------------|---------5-6-5-----|
|---4-5-4-7-5-4-5-4-|---4-5-4-------7-5-|
|-7-----------------|-7-----------------|
|-------------------|-------------------|
|-------------------|-------------------|

|-------------------|-------------------||
|-------------------|-------------------||
|---4-5---4-5---4---|---4-5---4-5---4---||
|-7-----7-----7---5-|-7-----7-----7---5-||
|-------------------|-------------------||
|-------------------|-------------------||

|--------------|--------------|--------------|--------------|
|--------------|--------------|--------------|--------------|
|-2---2---(2)--|-4---4---(4)--|-5---5---(5)--|-4---4---(4)--|
|-2---2---(2)--|-4---4---(4)--|-5---5---(5)--|-4---4---(4)--|
|-0---0---(0)--|-2---2---(2)--|-3---3---(3)--|-2---2---(2)--|
|--------------|--------------|--------------|--------------|

   Coro
    A5         F5         G5
||-----------|----------|----------|--------|
||o----------|----------|----------|--------|
||--2--------|----------|----------|--------|
||--2--------|-3--------|-5--------|-(5)----|
||o-0--------|-3--------|-5--------|-(5)----|
||-----------|-1--------|-3--------|-(3)----|

  A5         C5         G5
|----------|----------|----------|---------||
|----------|----------|----------|--------o||
|-2--------|-5--------|----------|---------||
|-2--------|-5--------|-5--------|-(5)-----||
|-0--------|-3--------|-5--------|-(5)----o||
|----------|----------|-3--------|-(3)-----||

   Breakdown
||----------------------------------------------|
||o-8-12-12-12-8-10-10-10-8-12-12-12-8-10-10-10-|
||----------------------------------------------|
||----------------------------------------------|
||o---------------------------------------------|
||----------------------------------------------|

|----------------------------------------------|
|-8-12-12-12-8-10-10-10-8-12-12-12-8-10-10-10--|
|----------------------------------------------|
|----------------------------------------------|
|----------------------------------------------|
|----------------------------------------------|

|-------------------------------------------------|
|-10-13-13-13-10-12-12-12-10-13-13-13-10-12-12-12-|
|-------------------------------------------------|
|-------------------------------------------------|
|-------------------------------------------------|
|-------------------------------------------------|

|-------------------------------------------------|
|-10-13-13-13-10-12-12-12-10-13-13-13-10-12-12-12-|
|-------------------------------------------------|
|-------------------------------------------------|
|-------------------------------------------------|
|-------------------------------------------------|

|-------------------------------------------------|
|-12-15-15-15-12-13-13-13-12-15-15-15-12-13-13-13-|
|-------------------------------------------------|
|-------------------------------------------------|
|-------------------------------------------------|
|-------------------------------------------------|

|-------------------------------------------------|
|-12-15-15-15-12-13-13-13-12-15-15-15-12-13-13-13-|
|-------------------------------------------------|
|-------------------------------------------------|
|-------------------------------------------------|
|-------------------------------------------------|

  1.--------------------------------------------------------------------------/
|-------------------------------------|--------------------------------------||
|-0-20-0-0-0-18-0-0-0-20-0-0-0-18-0-0-|-15-0-0-0-12-0-0-0-13-0-0-0-12-0-0-0-o||
|-------------------------------------|--------------------------------------||
|-------------------------------------|--------------------------------------||
|-------------------------------------|-------------------------------------o||
|-------------------------------------|--------------------------------------||

  2.----------------------------------------------------------------------/
|-------------------------------------|-----------------------------------||
|-------------------------------------|-----------------------------------||
|-19-0-0-0-17-0-0-0-16-0-0-0-14-0-0-0-|-12-0-0-0-10-0-0-0-9-0-0-0-7-0-0-0-||
|-------------------------------------|-----------------------------------||
|-------------------------------------|-----------------------------------||
|-------------------------------------|-----------------------------------||

 Outro (De aquí en adelante todo se toca con Trémolo picking)
 
|-----------|------------------|------------|-----------------|
|-----------|------------------|------------|-----------------|
|-----------|------------------|------------|-----------------|
|-7------9--|-10----/14--12-10-|-9----------|-9-10-12-10-9----|
|-----------|------------------|----10------|-----------------|
|-----------|------------------|------------|-----------------|

|-------------------|------------------|---------------|---------|
|-------------------|------------------|---------------|---------|
|-------------------|------------------|---------------|---------|
|-14---(14)-10--12--|-14----/17--15-14-|-(14)--12------|-(12)----|
|-15---(15)-12--14--|-15----/19--17-15-|-(15)--14------|-(14)----|
|-------------------|------------------|---------------|---------|

|-------------------|---------------------|-----------|---------|
|-------------------|---------------------|-----------|---------|
|-12----(12)--9-10--|-12----(12)-12-14-15-|-16--------|-(16)----|
|-14----(14)-10-12--|-14----(14)-14-16-17-|-18--------|-(18)----|
|-------------------|---------------------|-----------|---------|
|-------------------|---------------------|-----------|---------|
   
|-----------------|-----------|----------------------------------------|
|-13----(13)-15---|-17--------|----------------------------------------|
|-14----(14)-16---|-18--------|-21-0-0-19-0-0-19-0-0-17-0-0-17-0-0-17--|
|-----------------|-----------|----------------------------------------|
|-----------------|-----------|----------------------------------------|
|-----------------|-----------|----------------------------------------|

                                        2/8
                                             ~~~
|--------------------------------------|-----------*|
|--------------------------------------|-----------*|
|-0-0-17-0-0-17-0-0-16-0-0-16-0-0-14-0-|-12-14\----*|
|--------------------------------------|-----------*|
|--------------------------------------|-----------*|
|--------------------------------------|-----------*|





Comments


Popular Caifanes tabs & chords
La Celula Que Explota Bass Tabs
Amarrate Una Escoba Vuela Lejos Chords
Deslizandote Chords
Detras De Ti Chords
Negro Cosmico Chords
Ayer Me Dijo Un Ave 1 Tabs
Dioses Ocultos Tabs
Estas Dormida Tabs
La Vida No Es Eterna Ukulele
No Dejes Que Ukulele


Song lyrics



↑ Back to top | Tablatures and chords are parodies/interpretations of the original songs. You may use it for private study, scholarship, research or language learning purposes only
© 2014 AZChords.com Contact us | Privacy policy | DMCA | Add/correct tabs | Request tabs | Top 50 tabs