» » »

Shake Me Down Tabs (ver.3)

Artists:  A B C D E F G H I J K L M N O P Q R S T U V W X Y Z # 

Shake Me Down Tabs (ver.3)

Cage The Elephant
Rating:
4.9/5 (26 votes)

Hard to play? Try these video lessons and learn fast.
                I'm very sure about the chords but the intro is up to debate. If you positively 
know the intro feel free to make a new tab with the correct intro. Enjoy! Can't 
wait for the album. 

Intro/First Verse (Eigth Notes):
e--------------------|
B-------5-------5----|
G-----6-------6------|
D-6-7-----7-6--------| X12
A--------------------|
E--------------------|

First Verse Part Two:
e-----5--------4---|
B------------5-----|
G---6---6--6-----6-|
D-7----------------| 
A------------------|
E------------------|

e-----2--------2---|
B---2---2----3---3-|
G----------4-------|
D-4----------------| X4 
A------------------|
E------------------|

First Short Chorus (Quarter Notes):
e-0-0-0-0-0-0-0-0--|
B-0-0-0-0-0-0-0-0--|
G-1-1-1-1-1-1-1-1--|
D-2-2-2-2-2-2-2-2--|
A-2-2-2-2-2-2-2-2--|
E-0-0-0-0-0-0-0-0--|

First Post Chorus(Studio Effect on last note) :
e--------------------|------------|
B-------5-------5----|-5--5--5--5-|
G-----6-------6------|------------|
D---7-----7-6--------|------------|
A--------------------|------------|
E--------------------|------------|

Second Verse (Eigth Notes):
e--------------------|
B-------5-------5----|
G-----6-------6------|
D-6-7-----7-6--------| X8
A--------------------|
E--------------------|

Second Verse Part Two:
e-----------------------|
B-----------------------|
G------------6-6-6-6-6--|
D-7-7-7-7-7--6-6-6-6-6--|
A-7-7-7-7-7--4-4-4-4-4--|
E-5-5-5-5-5-------------|

e-----------------------|
B-----------------------|
G------------4-4-4-4-4--|
D-4-4-4-4-4--4-4-4-4-4--| X3
A-4-4-4-4-4--2-2-2-2-2--|
E-2-2-2-2-2-------------|

e-----------------------|
B-----------------------|
G------------6-6-6-6-6--|
D-7-7-7-7-7--6-6-6-6-6--|
A-7-7-7-7-7--4-4-4-4-4--|
E-5-5-5-5-5-------------|

e----------------|
B----------------|
G----------------|
D-4--4--4--4-----| 
A-4--4--4--4-----|
E-2--2--2--2-----|

Chorus (Quarter Notes) :
e-0-0-0-0-0-0-0-0--|
B-0-0-0-0-0-0-0-0--|
G-1-1-1-1-1-1-1-1--|
D-2-2-2-2-2-2-2-2--|
A-2-2-2-2-2-2-2-2--|
E-0-0-0-0-0-0-0-0--|

Listen For Timing
e------------|0--0--0--0|
B------------|0--0--0--0|
G------------|1--1--1--1|
D-7-7-7--6-4-|2--2--2--2| X3
A-7-7-7--6-4-|2--2--2--2|
E-5-5-5--4-2-|0--0--0--0|


Breakdown (Listen For Timing):

e-----------|
B-----------|
G--------6--|
D-7-7-7--6-6| X3
A-7-7-7--4-6|
E-5-5-5----4|

e-----------|
B-----------|
G-----------|
D-4--4--4--4| Repeat whole Breakdown 2X
A-4--4--4--4|
E-2--2--2--2|

Bridge (First Part Whole Notes, Second Part Eigth Notes):
e-----------------|----------------|
B-----------------|----------------|
G-----------------|----------------|
D-2-2-2-2-4-4-4-7-|7-7-7-7-7-7-7-7-| X3
A-2-2-2-2-4-4-4-7-|7-7-7-7-7-7-7-7-|
E-0-0-0-0-2-2-2-5-|5-5-5-5-5-5-5-5-|
  D         A           E           F#m 
e-2-------|------------|-----------|2-----------|
B-3-------|-2----------|-----------|2-----------|
G-2-------|-2----------|1----------|2-----------|
D---------|-2----------|2----------|4-----------|
A---------|-0----------|2----------|4-----------|
E---------|------------|0----------|2-----------|
  D        A            E                F#m
e-2-------|------------|----------------|2-2-2-2-2-2-2-2-|
B-3-------|2-----------|----------------|2-2-2-2-2-2-2-2-|
G-2-------|2-----------|1-1-1-1-1-1-1-1-|2-2=2-2-2-2-2-2-|
D---------|2-----------|2-2-2-2-2-2-2-2-|4-4-4-4-4-4-4-4-|
A---------|0-----------|2-2-2-2-2-2-2-2-|4-4-4-4-4-4-4-4-|
E---------|------------|0-0-0-0-0-0-0-0-|2-2-2-2-2-2-2-2-|

Second Part:
  D                A               E               F#m
e-2-2-2-2-2-2-2-2|----------------|---------------|2-2-2-2-2-2-2-2|
B-3-3-3-3-3-3-3-3|-2-2-2-2-2-2-2-2|---------------|2-2-2-2-2-2-2-2|
G-2-2-2-2-2-2-2-2|-2-2-2-2-2-2-2-2|1-1-1-1-1-1-1-1|2-2-2-2-2-2-2-2|
D----------------|-2-2-2-2-2-2-2-2|2-2-2-2-2-2-2-2|4-4-4-4-4-4-4-4|
A----------------|-0-0-0-0-0-0-0-0|2-2-2-2-2-2-2-2|4-4-4-4-4-4-4-4|
E----------------|----------------|0-0-0-0-0-0-0-0|2-2-2-2-2-2-2-2|

  D                A               
e-2-2-2-2-2-2-2-2|----------------|
B-3-3-3-3-3-3-3-3|-2-2-2-2-2-2-2-2|
G-2-2-2-2-2-2-2-2|-2-2-2-2-2-2-2-2|
D----------------|-2-2-2-2-2-2-2-2|
A----------------|-0-0-0-0-0-0-0-0|
E----------------|----------------|
Chorus (Quarter Notes) :
e-0-0-0-0-0-0-0-0--|
B-0-0-0-0-0-0-0-0--|
G-1-1-1-1-1-1-1-1--|
D-2-2-2-2-2-2-2-2--| X3
A-2-2-2-2-2-2-2-2--|
E-0-0-0-0-0-0-0-0--|

Outro (Eigth Notes):
e--------------------|
B-------5-------5----|
G-----6-------6------|
D-6-7-----7-6--------| X9
A--------------------|
E--------------------|
            
Hard to play? Try these video lessons and learn fast. | Correct




comments powered by Disqus
↑ Back to top | Tablatures and chords are parodies/interpretations of the original songs. You may use it for private study, scholarship, research or language learning purposes only