>
 >
Shake Me Down

Shake Me Down Bass Tabs

Cage The Elephant - Shake Me Down chords, tabs, tablatures, lyrics

Guitar lessons | Add/correct | Request | Top 50 tabs Artists:  A B C D E F G H I J K L M N O P Q R S T U V W X Y Z 0-9

Shake Me Down Bass Tabs – Cage The Elephant

CD, Sheet music, Poster

Do you like Shake Me Down? Share with your friends now
Bass TabsChordsChords v2Chords v3TabsTabs v2Tabs v3Tabs v4Tabs v5Tabs v6Tabs v7Tabs v8Ukulele
Tuning: Standard

-Listen to the song for timing-

-Guitar Intro-

-Bass Starts 0:28-

G|--------------------------------------------------|
D|--------------------------------------------------|
A|--------------4--------4--------------2--------2--|
E|--55555----5--------------2--------2--------------|

G|--------------------------------------------------|
D|--------------------------------------------------|
A|--------------4--------4--------------2--------2--| X3
E|--5--------5--------------2--------2--------------|

G|--------------------------|
D|--------------------------|
A|--7--7--7--7--7--7--7--7--|
E|--------------------------|

-Pause-

G|------------|
D|------------|
A|----4-------| X8
E|--5---4--0\-|

G|-----------------------------|
D|--------------44444----------|
A|--------44444-------2222020--| X4
E|--55555----------------------|

G|--------------------------|
D|--------------------------|
A|--------------------------|
E|--0--0--0--0--0--0--0--0--|

G|--------------------------|
D|--------------------------|
A|--------------------------| X3
E|--55-4-2-0-00-000-00-000--|

G|------------------|
D|------------------|
A|-------------4----|
E|--22-5-3-555---4--|

G|-----------|
D|-----------|
A|------4----| X2
E|--555---4--|

G|------------|
D|------------|
A|------------|
E|--22222234--|

G|-----------|
D|-----------|
A|------4----| X3
E|--555---4--|

G|------------------------------|
D|------------------------------|
A|-----------2222---------------|
E|--222222222----2222/55555555--|

G|---------------------|
D|---------------------|
A|--2222---------------| X2
E|------2222/55555555--|

-Pause-

G|---------------------------------------------------------------------------|
D|---------------------------------------------------------------------------|
A|---------------------------------------------------------------------------| X2
E|--0-0-0-0-0-0-0-0-2-2-2-2-2-2-2-2/10-10-10-10-10-10-10-10\5-5-5-5-5-5-5-5--|

G|-------------------|
D|-------------------|
A|-------------------| X3
E|--0-0-0-0-0-0-0-0--|





Comments


Popular Cage The Elephant tabs & chords
In One Ear Bass Tabs
Around My Head Chords
Come A Little Closer 4 Chords
Hypocrite Chords
Rubber Ball 1 Chords
Tiny Little Robots Chords
Aint No Rest For The Wicked 4 Tabs
Aint No Rest For The Wicked 5 Tabs
Halo Tabs
2024 Ukulele


Song lyrics



↑ Back to top | Tablatures and chords are parodies/interpretations of the original songs. You may use it for private study, scholarship, research or language learning purposes only
© 2014 AZChords.com Contact us | Privacy policy | DMCA | Add/correct tabs | Request tabs | Top 50 tabs