» » »

Cage The Elephant, Sell Yourself Tabs (ver.1)

Artists:  A B C D E F G H I J K L M N O P Q R S T U V W X Y Z # 

Sell Yourself Tabs (ver.1)

Cage The Elephant Tabs
 Rating:
4.2/5 (5 votes)
Sell Yourself lessons Tabs too difficult? Try these video lessons and learn fast
                -------------------------------------------------------------------------------
                     Sell Yourself- Cage the Elephant
-------------------------------------------------------------------------------

Tuning: Standard EADBGe

Intro: heavy effects, chorus or wah-wah most likely, over some kind of feedback.

e|--------------------------|
B|------4~------------------|
G|--3-4~----4~4~4~4~4~------|
D|--------------------------|
A|--------------------------|
E|--------------------------|

Verse: Strum slightly quieter each time until you repeat

e|-----------------|
B|-----------------|
G|-4444444444444---|
D|-xxxxxxxxxxxxx---|
A|-2222222222222---| x4
E|-----------------|

Prechorus:

e|------------|
B|--------0---|
G|-4-4-44--3~-|
D|-4-4-44-----|
A|-2-2-22-----| x8
E|------------|

Chorus:
E|------------------------|
B|------------------------|
G|------------------------|
D|-9-9-9-8-88-7-7-7-6--678|
A|-9-9-9-8-88-7-7-7-6--678| x4
E|-7-7-7-6-66-5-5-5-4--456|

Bridge:

Part 1:

e|--------------------|
B|--------------------|
G|-44444444444444/16--|
D|--------------------|
A|--------------------|
E|--------------------|

Part 2:

e|---------------------------*-------|
B|--------------------15-----*-------|
G|-15h16-15h16-15h1616-------*-15b19-|
D|---------------------------*-------|
A|------------------------x3-*-------|
E|---------------------------*-------|

Part 3:

e|-----------------*------------------------------|
B|-----------------* 15b17-17-17171717------------|
G|-8~--------------*-------------------15b16~-----|
D|----7999b10-7----*------------------------------|
A|--------------x3-*------------------------------|
E|-----------------*------------------------------|

Final Chorus: play this over regular part

e|-7-7-7-6-66-5-5-5-4-4-4h5--|
B|---------------------------|
G|---------------------------|
D|---------------------------|
A|---------------------------| x4
E|---------------------------|

Outro:

e|----------|
B|----------|
G|----------|
D|-66778899-|
A|-66778899-| x4
E|-44556677-|

Order

Intro
Verse
Prechorus
Chorus
Verse
Prechorus
Chorus
Bridge
Final Chorus
Outro

************************************

| /   slide up
| \   slide down
| h   hammer-on
| p   pull-off
| ~   vibrato
| +   harmonic
| x   Mute note
| b   Bend
| pb  Pre-bend
| br  Bend release
| pbr Pre-bend release
| brb Bend release bend

************************************
            
Submit corrections

comments powered by Disqus
↑ Back to top | Cage The Elephant Tabs for Sell Yourself. Lyrics for acoustic guitar and electric guitar. Tablatures and chords are parodies/interpretations of the original songs. You may use it for private study, scholarship, research or language learning purposes only