» » »

Sell Yourself Tabs (ver.2)

Artists:  A B C D E F G H I J K L M N O P Q R S T U V W X Y Z # 

Sell Yourself Tabs (ver.2)

Cage The Elephant
Rating:
0/5 (0 votes)

Hard to play? Try these video lessons and learn fast.
                

B bend
R release bend

/ slide up
\ slide down
M Mute

Standard Tuning

-----|------------------------------------------|-------------|--|------------|
-----|------------------------------------------|-------------|--|------------|
-----|------------------------------------------|-------------|--|------------|
-----|------------------------------------------|-------------|--|------------|
-----|-------------18-18-18-18------------------|-------------|--|------------|
-----|-18-18-19-19-------------17-17-17-17-17---|-19-17-18-17-|--|------------|
  Intro                                           Fuzzy

-----|---------|--|-----------------------------------------------------------|
-----|---------|--|-----------------------------------------------------------|
-----|---------|--|-----------------------------------------------------------|
-----|---------|--|-----------------------------------------------------------|
-----|-2-2-2-2-|--|-----------------------------------------------------------|
-----|---------|--|-----------------------------------------------------------|
  Verse Pt.1

-----|------------------------------------------------------------------------|
-----|------------------------------------------------------------------------|
-----|------------------------------------------------------------------------|
-----|-------------------------9----------------------------------------------|
-----|-2-2-2-2-2-10--2-2-2-2-2-10---2-2-2-2-2-10--2-2-2-2-2-10--2-2-2-2-2-10--|
-----|------------------------------------------------------------------------|
  Verse Pt.2                   P

---------------------------------------------|--------------------------------|
---------------------------------------------|--------------------------------|
---------------------------------------------|--------------------------------|
------------9--------------------------------|--------------------------------|
--2-2-2-2-2-10--2-2-2-2-2-10-----------------|--------------------------------|
------------------------------3-3-4-4-5-5-6--|--------------------------------|
                                           m

-----|----------------------------|--|----------------------------------------|
-----|----------------------------|--|----------------------------------------|
-----|----------------------------|--|----------------------------------------|
-----|----------------------------|--|----------------------------------------|
-----|----------------------------|--|----------------------------------------|
-----|-7-6-5--5--5-5--3-3--3-4-5--|--|----------------------------------------|
  Chorus    m  m    m    m      m

-----|-------------------------|--|--------------------|-----------------|---|
-----|-------------------------|--|--------------------|-7---7---7---9---|---|
-----|-------------------------|--|--------------------|---7---7---7-----|---|
-----|-------------------------|--|-------------19-21\-|-----------------|---|
-----|-14-15-14-15-14-15-14-15-|--|-14-15-14-15--------|-----------------|---|
-----|-------------------------|--|--------------------|-----------------|---|
  Interlude

-----|--------|--------------------|--|----------------------------|----------|
-----|-7-b-r--|--------------------|--|----------------------------|----------|
-----|-7-b-r--|--------------------|--|----------------------------|----------|
-----|--------|--------------------|--|----------------------21----|----------|
-----|--------|-18-----------------|--|-17-17-18-18-19-19-20-------|----------|
-----|--------|----18-17--18br-17--|--|----------------------------|----------|


-----|----------------|--|------------|---------------------------------------|
-----|----------------|--|------------|---------------------------------------|
-----|----------------|--|------------|---------------------------------------|
-----|----------------|--|------------|---------------------------------------|
-----|----------------|--|------------|---------------------------------------|
-----|-3-3-4-4-5-5-6--|--|-3-3-4-4-5--|---------------------------------------|
  Outro Bass
            
Hard to play? Try these video lessons and learn fast. | Correct




comments powered by Disqus
↑ Back to top | Tablatures and chords are parodies/interpretations of the original songs. You may use it for private study, scholarship, research or language learning purposes only