» » »

Ain't No Rest For The Wicked Tabs (ver.5)

Artists:  A B C D E F G H I J K L M N O P Q R S T U V W X Y Z # 

Ain't No Rest For The Wicked Tabs (ver.5)

Cage The Elephant
Rating:
0/5 (0 votes)

Hard to play? Try these video lessons and learn fast.
                (3)
Ain't No Rest For The Wicked
Cage The Elephant


Tuning Standard.

I've marked the parts that need a slide, you can do it without one but it doesn't 
sound half as good.


Intro:(Slide)
|--0-3-0-5-0----0-3-0-5-0---3/5-5-5-5-5---0-3-0-5-0---0-3-0--0-3-0-0-3-0-|
|--0-3-0-5-0----0-3-0-5-0---3/5-5-5-5-5---0-3-0-5-0---0-3-0--0-3-0-0-3-0-|
|--0-3-0-5-0----0-3-0-5-0---3/5-5-5-5-5---0-3-0-5-0---0-3-0--0-3-0-0-3-0-|
|--0-3-0-5-0----0-3-0-5-0---3/5-5-5-5-5---0-3-0-5-0---0-3-0--0-3-0-0-3-0-|
|------------------------------------------------------------------------|
|------------------------------------------------------------------------|

Verses:
|------------------------------------------------------------------------|
|------------------------------------------------------------------------|
|-----------------3-3-x-x-x-x-x-x-5-5-x-x-x-x-x-x-3-3-x-x----------------|
|-5-5-x-x-x-x-x-x-3-3-x-x-x-x-x-x-5-5-x-x-x-x-x-x-3-3-x-x-3-3-x-x--------|
|-5-5-x-x-x-x-x-x-1-1-x-x-x-x-x-x-3-3-x-x-x-x-x-x-1-1-x-x-3-3-x-x--------|
|-3-3-x-x-x-x-x-x-----------------------------------------1-1-x-x--------|
(x 4) but, on 4th time do this
|--------------------------------------------------0-3-0-0-3-0-----------|
|--------------------------------------------------0-3-0-0-3-0-----------|
|-----------------3-3-x-x-x-x-x-x-5-5-x-x-x-x-x-x--0-3-0-0-3-0-----------|
|-5-5-x-x-x-x-x-x-3-3-x-x-x-x-x-x-5-5-x-x-x-x-x-x--0-3-0-0-3-0-----------|
|-5-5-x-x-x-x-x-x-1-1-x-x-x-x-x-x-3-3-x-x-x-x-x-x------------------------|
|-3-3-x-x-x-x-x-x--------------------------------------------------------|

Chorus:(Slide)
|-3/12\3--3/5-5-5-5-5----------------------------------------------------|
|-3/12\3--3/5-5-5-5-5----------------------------------------------------|
|-3/12\3--3/5-5-5-5-5----------------------------------------------------|
|-3/12\3--3/5-5-5-5-5----------------------------------------------------|
|------------------------------------------------------------------------|
|------------------------------------------------------------------------|
Do that for whole chorus but last time do this,
|-3/12\3/------15----15--------------------------------------------------|
|-3/12\3/---15-----15---15\----------------------------------------------|
|-3/12\3/----------------------------------------------------------------|
|-3/12\3/----------------------------------------------------------------|
|------------------------------------------------------------------------|
|------------------------------------------------------------------------|

Solo:(Slide, you'll want to gently move the slide back and forth on every held note to 
a vibrato-ish sound)
|-------------------------------------------------------------------------|
|-/11~--------------/11~---------------/11~-------------/11~-----/11~-----|
|-----10/12-----10------10/12-------10-----10/12-----10----10/12----10/12-|
|-----------8~------------------8~----------------8~----------------------|
|-------------------------------------------------------------------------|
|-------------------------------------------------------------------------|

and that's all. Enjoy!




(/) Slide Up  (\) Slide Down (~) Slide Vibrato (x) Dead Note
            
Hard to play? Try these video lessons and learn fast. | Correct




comments powered by Disqus
↑ Back to top | Tablatures and chords are parodies/interpretations of the original songs. You may use it for private study, scholarship, research or language learning purposes only