» » »

Cage The Elephant, Ain't No Rest For The Wicked Bass tabs (ver.1)

Artists:  A B C D E F G H I J K L M N O P Q R S T U V W X Y Z # 

Ain't No Rest For The Wicked Bass tabs (ver.1)

Cage The Elephant Tabs
Rating:
0/5 (0 votes)
Ain't No Rest For The Wicked lessons Tabs too difficult? Try these video lessons and learn fast
                ----------------------------------------------------------------------------
Aint No Rest For The Wicked - Cage The Elephant
----------------------------------------------------------------------------


Come in at "Not even fifteen minutes later"...

Verse:
G|--------------------------------------------------------------------------|
D|--------------------------------------------------------------------------|
A|----11--33--11---------11--33--11---------11--33--11---------11--33-------|
E|33-------------11--33-------------11--33-------------11--33---------------|

Chorus:
G|--------------------------------------------------------------------------|
D|--------------------------------------------------------------------------|
A|-----111---------111----------111---------111---------111---------111-----|
E|33------1-2-33------1-2-33-------1-2-33------1-2-33------1-2-33------1-2--|

G|------------|
D|------------|
A|-----111----|
E|33------1-2-|

Guitar Solo:
G|--------------------------------------------------------------------------|
D|--------------------------------------------------------------------------|
A|-----111---------111----------111---------111---------111---------111-----|
E|33------1-2-33------1-2-33-------1-2-33------1-2-33------1-2-33------1-2--|

G|------------|
D|------------|
A|-----111----|
E|33------1-2-|

Verse:
G|--------------------------------------------------------------------------|
D|--------------------------------------------------------------------------|
A|----11--33--11---------11--33--11---------11--33--11---------11--33-------|
E|33-------------11--33-------------11--33-------------11--33---------------|

Chorus:
G|--------------------------------------------------------------------------|
D|--------------------------------------------------------------------------|
A|-----111---------111----------111---------111---------111---------111-----|
E|33------1-2-33------1-2-33-------1-2-33------1-2-33------1-2-33------1-2--|

G|--------------|
D|--------------|
A|-----111------|
E|33------1-2-3-|
            

comments powered by Disqus
↑ Back to top | Cage The Elephant Bass for Ain't No Rest For The Wicked. Lyrics for acoustic guitar and electric guitar. Tablatures and chords are parodies/interpretations of the original songs. You may use it for private study, scholarship, research or language learning purposes only