» » »

Cage The Elephant, Ain't No Rest For The Wicked Bass tabs (ver.2)

Artists:  A B C D E F G H I J K L M N O P Q R S T U V W X Y Z # 

Ain't No Rest For The Wicked Bass tabs (ver.2)

Cage The Elephant Tabs
Rating:
0/5 (0 votes)
Ain't No Rest For The Wicked lessons Tabs too difficult? Try these video lessons and learn fast
                -------------------------------------------------------------------------------
			     Aint No Rest for the Wicked - Cage The Elephant
-------------------------------------------------------------------------------
Tuning: Standard


Verse - (comes in about 1:02 "Now after 15 minutes later...")
G|--------------------------------------|
D|--------------------------------------|
A|----------1--1----3--3----1--1--------|
E|--3--3--------------------------1--1--|

Prechorus - (1:20 "what made you decide to want to live this kind of life...")
G|--------------------------------------|
D|--------------------------------------|
A|----------1--1----3--3----------------|
E|--3--3--------------------------------|


Chorus - ("Oh there ain't no rest for the wicked...")
G|-------------------------------------|
D|-------------------------------------|
A|-------------------3---5---1---------|
E|--3--3--3--3-------------------------|
            

comments powered by Disqus
↑ Back to top | Cage The Elephant Bass for Ain't No Rest For The Wicked. Lyrics for acoustic guitar and electric guitar. Tablatures and chords are parodies/interpretations of the original songs. You may use it for private study, scholarship, research or language learning purposes only