>
 >
Aberdeen 1

Aberdeen 1 Guitar Tabs

Cage The Elephant - Aberdeen 1 chords, tabs, tablatures, lyrics

Guitar lessons | Add/correct | Request | Top 50 tabs Artists:  A B C D E F G H I J K L M N O P Q R S T U V W X Y Z 0-9

Aberdeen 1 Guitar Tabs – Cage The Elephant

CD, Sheet music, Poster

Do you like Aberdeen 1? Share with your friends now
Bass TabsBass Tabs v2Bass Tabs v3Bass Tabs v4Bass Tabs v5ChordsChords v2TabsTabs v2Ukulele
-----------------------------------------------------------------------------
                       ABERDEEN - Cage the Elephant
-----------------------------------------------------------------------------

Tuning: Standard (EADGBE)


Intro:

Rhythm:

e|---------------------------------|
B|---------------------------------|
G|---------------------------------|
D|---------4-4-4-4-9-9-9-9-5-5-5-5-|
A|-5-5-5-5-2-2-2-2-7-7-7-7-3-3-3-3-| x4
E|-3-3-3-3-------------------------|

Lead:

e|---------------------------------------------|
B|---------------------------------------------|
G|-12~-11~-4~-3h4p3h4--12--11--4p3h4p3h4p3h4p3-|
D|---------------------------------------------|
A|---------------------------------------------| x2
E|---------------------------------------------|


Verse 1:

Rhythm: (this is actually the bass part translated to guitar)

e|-----------------------------------------------------------------|
B|-----------------------------------------------------------------|
G|-----------------------------------------------------------------|
D|-----------------------------------------------------------------|
A|-------------------------------------------------3-3-3-3-2-2-2-2-| x3
E|-3-3-3-5h7-0-0-0-0-3-3-3-5h7-0-0-0-0-3-3-3-3-5h7-----------------|

Lead:

play this part after "I've been trying real hard to realize"

e|-------------5*----|
B|----------5*-------|
G|-------5*----------|
D|-------------------|
A|-------------------|
E|-------------------|

play this part during "a long long time, a long time" mixed in with some feedback

e|---------5*-|
B|---------5*-|
G|--12*----5*-|
D|------------|
A|------------|
E|------------|


Chorus:

Rhythm:

e|---------------------------------|
B|---------------------------------|
G|---------------------------------|
D|---------4-4-4-4-9-9-9-9-5-5-5-5-|
A|-5-5-5-5-2-2-2-2-7-7-7-7-3-3-3-3-| x4
E|-3-3-3-3-------------------------|

Lead:

e|--------------------------------|
B|--------------------------5~----|
G|-4~------4~------4~-------------|
D|--------------------------------|
A|--------------------------------| x3
E|--------------------------------|

During "Aberdeen... way back, way back, way bacK"

e|-12*12*12*12*12*12*12*12*-------|
B|-12*12*12*12*12*12*12*12*-------|
G|--------------------------------|
D|--------------------------------|
A|--------------------------------|
E|--------------------------------|


Verse 2:

Rhythm:

same as verse 1

e|-----------------------------------------------------------------|
B|-----------------------------------------------------------------|
G|-----------------------------------------------------------------|
D|-----------------------------------------------------------------|
A|-------------------------------------------------3-3-3-3-2-2-2-2-| x3
E|-3-3-3-5h7-0-0-0-0-3-3-3-5h7-0-0-0-0-3-3-3-3-5h7-----------------|

Beginning of verse

e|------------------------------|
B|---------------------15~-14\\-|
G|--------------13~-------------|
D|-----11~-14~------------------|
A|-12~--------------------------|
E|------------------------------|


Solo:

e|-----3--------------------------3-------8~-7~------|
B|-4h5----5~-----------------4h5-----5~--------------|
G|---------------3h4-0---------------------------7b8-|
D|---------------------------------------------------|
A|----------------------3~-2-------------------------|
E|---------------------------------------------------|

e|-----3--------------------------3-------10b11------|
B|-4h5----5~-----------------4h5-----5~--------------|
G|---------------3h4-0-------------------------------|
D|---------------------------------------------------|
A|----------------------3~-2-------------------------|
E|---------------------------------------------------|


Interlude:

Rhythm:

e|---------------------------------|
B|---------------------------------|
G|---------------------------------|
D|---------4-4-4-4-9-9-9-9-5-5-5-5-|
A|-5-5-5-5-2-2-2-2-7-7-7-7-3-3-3-3-| x4
E|-3-3-3-3-------------------------|

Lead:

e|---------------------------------------------|
B|---------------------------------------------|
G|-12~-11~-4~-3h4p3h4--12--11--4p3h4p3h4p3h4p3-|
D|---------------------------------------------|
A|---------------------------------------------| x2
E|---------------------------------------------|


Final Chorus:

Rhythm:

e|---------------------------------|
B|---------------------------------|
G|---------------------------------|
D|---------4-4-4-4-9-9-9-9-5-5-5-5-|
A|-5-5-5-5-2-2-2-2-7-7-7-7-3-3-3-3-| x4
E|-3-3-3-3-------------------------|

Lead:

play this part during "Aberdeen... Abeerden..."

e|-------3-------|
B|---4h5--5------|
G|---------------|
D|---------------|
A|---------------|
E|---------------|

play this part during "Way back, way back, way back"

e|--------------------------------------------------------------|
B|--------------------------------------------------------------|
G|-12~-11~-4~--3h4p3h4--12~-11~-4p3h4p3h4p3h4p3h4p3h4p3h4p3h4p3-|
D|--------------------------------------------------------------|
A|--------------------------------------------------------------|
E|--------------------------------------------------------------|


Order:

Intro
Verse 1
Chorus
Verse 2
Chorus
Solo
Interlude
Final Chorus


************************************

| /   slide up
| \   slide down
| h   hammer-on
| p   pull-off
| ~   vibrato
| *   harmonic
| x   Mute note
| b   Bend
| pb  Pre-bend
| br  Bend release
| pbr Pre-bend release
| brb Bend release bend

************************************





Comments


Popular Cage The Elephant tabs & chords
Come A Little Closer 1 Chords
Spiderhead 1 Chords
Flow 1 Tabs
Halo Tabs
In One Ear 3 Tabs
Kids Tabs
Rubber Ball Tabs
Sabertooth Tiger Tabs
Aberdeen Ukulele
Aint No Rest For The Wicked 2 Ukulele


Song lyrics



↑ Back to top | Tablatures and chords are parodies/interpretations of the original songs. You may use it for private study, scholarship, research or language learning purposes only
© 2014 AZChords.com Contact us | Privacy policy | DMCA | Add/correct tabs | Request tabs | Top 50 tabs