» » »

Cage The Elephant, Aberdeen Tabs (ver.1)

Artists:  A B C D E F G H I J K L M N O P Q R S T U V W X Y Z # 

Aberdeen Tabs (ver.1)

Cage The Elephant Tabs
Rating:
4/5 (9 votes)
Aberdeen lessons Tabs too difficult? Try these video lessons and learn fast
                Second Tab...well My first whole tab, check out my Shake Me Down intro tab, cause people 
are having a hard time with the intro it seems. This includes lead and rhythm parts. I 
will do the Lead under the Rhythm.

    G chord        ?          C chord       E chord
e|--5----------------------------|
B|--8--------------5-------------|
G|--7--------------5-------------|
D|--5------4-------5-------9-----|
A|--5------2-------3-------7-----|
E|-------------------------------|

Intro-

|-5-5-5----------------------|
|-8-8-8-------5-5-5-5-5-5-5-5|
|-7-7-7-------5-5-5-5-5-5-5-5|
|-5-5-5-4-4-4-5-5-5-5-5-5-5-5|
|-5-5-5-2-2-2-3-3-3-3-3-3-3-3|
|----------------------------|
|                                                                 |
|                                                                 |
|----------------------------|
|--5/8-5/7-------------------|
|-----------3b-3-4-3-4-------|
|----------------------------|
|----------------------------|
|----------------------------|

Break?-

|------------------------------------xxxxxxx-|
|------------------------------------xxxxxxx-|
|------------------------------------xxxxxxx-|
|----------------------------5-5-5-5-xxxxxxx-|
|----------------------------3-3-3-3-xxxxxxx-|
|--3-3-3-5-h7-p0-3three times----------------|

Chorus-

|--5-5-5-------------------|
|--8-8-8-------------------|
|--7-7-7-------------------|
|--5-5-5-4-4-4-9-9-9-5-5-5-|
|--5-5-5-2-2-2-7-7-7-3-3-3-|
|--------------------------|

Break 2-
Just a lot of harmonics and messing around.

Break-

|------------------------------------xxxxxxx-|
|------------------------------------xxxxxxx-|
|------------------------------------xxxxxxx-|
|----------------------------5-5-5-5-xxxxxxx-|
|----------------------------3-3-3-3-xxxxxxx-|
|--3-3-3-5-h7-p0-3three times----------------|

Chorus-

|--5-5-5-------------------|
|--8-8-8-------------------|
|--7-7-7-------------------|
|--5-5-5-4-4-4-9-9-9-5-5-5-|
|--5-5-5-2-2-2-7-7-7-3-3-3-|
|--------------------------|

Solo-

This is pretty fun to play.

Rhythm is an E minor then a G on the e string repeated like E-E-E-x-G-G-G-x-E-E-E-x-G-G-G
                                                                                         
      End solo with this
|-------3------------------3---8-7-----|-10b11-|
|--4-h5---5-----------4-h5---5---------|-------|
|-----------3-4-0------------------3-4-|-------|
|--------------------------------------|-------|
|-----------------3-4------------------|-------|
|--------------------------------------|-------|

Order-
Intro x5
break? x3
Chorus x4
Break 2 x1
Break?  x2
chorus x4
Solo x4
intro x2
chorus x4
intro x4

I been tryin', real hard,
ta, ta realize,
but some things take a real, real real long time
a long time

Hold the phone hit repeat
got me fallin' on my knees
saw the flame, tasted sin
you've burned me once again
she's a creep
Way back way back way back

Never saw my dark side
in ya- in your eyes
Back and fourth
bloody fingers paintin' up the sky
the sky

Hold the phone hit repeat
you got me fallin on my knees
saw the flame tasted
sin
you've burned me once again
cut the chord
she's a
creeeeeep
Way back way back way back

huh
huh
huh

ooohhh ooohhh ooohhh aaaaahhhhh
ooohhh ooohhh ooohhh aaaaahhhhh

Hold the phone hit repeat
you got me fallin on my knees
saw the flame tasted
sin
you've burned me once again
cut the chord
she's a
creeeeeep

Way back way back way back
Way back way back way back
Way back Way back Way back
(Oooohhh ooohhh ooohhhh)
Way back........


b-bend
x-mute
h-hammer on
p-pull off
            

comments powered by Disqus
↑ Back to top | Cage The Elephant Tabs for Aberdeen. Lyrics for acoustic guitar and electric guitar. Tablatures and chords are parodies/interpretations of the original songs. You may use it for private study, scholarship, research or language learning purposes only