» » »

Real World Bass tabs (ver.1)

Artists:  A B C D E F G H I J K L M N O P Q R S T U V W X Y Z # 

Real World Bass tabs (ver.1)

Buzzcocks
Rating:
0/5 (0 votes)

Hard to play? Try these video lessons and learn fast.
                Intro

 G:------------------------------------|
 D:------------------------------------|
 A:---0---4-0-4--5--4--5--7------------|
 E:---------------------------0--------|

Verse

 G:------------------------------------|
 D:----------------4-------------------|
 A:---0--4-0-4-545---5--7--(5)---------|    (5)= Ghost note (played lightly)
 E:------------------------------------|

Pre-Chorus

 G:------------------------------------|
 D:------------------------------------|
 A:-4444444444444444-55555555-77777777-|
 E:------------------------------------|

Chorus

 G:------------------------------------|
 D:------------------------------------|
 A:-----7---7------6---6---------------|
 E:--5----5-----4----4-----------------|

Post-Chorus

 G:------------------------------------|
 D:------------------------------------|
 A:-5555555555555555-7777777777777777--|
 E:------------------------------------|

  Intro x2
  Verse x16

  Pre-Chorus x1
  Chorus x2
  Post-Chorus x1

  Verse x4

  Pre-Chorus x1
  Chorus x2
  Post-Chorus x1

  Verse x4

  Pre-Chorus x1
  Chorus x2
  Post-Chorus x1

  Verse x4

  Pre-Chorus x1
  Chorus x2
  Post-Chorus x1
  Chorus x2
  Post-Chorus x1


That's it! Enjoy!
            
Hard to play? Try these video lessons and learn fast. | Correct




comments powered by Disqus
↑ Back to top | Tablatures and chords are parodies/interpretations of the original songs. You may use it for private study, scholarship, research or language learning purposes only