» » »

Buzzcocks, Orgasm Addict Bass tabs (ver.1)

Artists:  A B C D E F G H I J K L M N O P Q R S T U V W X Y Z # 

Orgasm Addict Bass tabs (ver.1)

Buzzcocks Tabs
 Rating:
3.6/5 (5 votes)
Orgasm Addict lessons Tabs too difficult? Try these video lessons and learn fast
1
                Time: 21.46

The Buzzcocks. I just wrote a review for this concert.

Intro
Well you tried it just for once found it alright for kicks.......
G----------------------------------------------------------------|
D----------------------------------------------------------------|
A----------------------------------------------------------------|
E---------5--------------------------------7---------------------|

But now you find out that its a habit that sticks........
G-----------------------------------------------------------------|
D-----------------------------------------------------------------|
A-----------------------------------------------------------------|
E----5---------------------------7--------------------------------|

And your an orgasm addict. Your an orgasm addict.
G------------------------------------------------------------------|
D------------------------------------------------------------------|
A------------------------------------------------------------------|
E-----------3---5---7---------------3---5---7----------------------|

Verse
Sneaking in the back door........
G---------------------------------------------------------------------|
D---------------------------------------------------------------------|
A---------------------------------------------------------------------|
E--5-5-5-5-5-5-5-5-5-5-5-5--7-7-7-7-7-7-7-7-7-------------------------|

Your mother wants to know........
G---------------------------------------------------------------------|
D---------------------------------------------------------------------|
A---------------------------------------------------------------------|
E--5-5-5-5-5-5-5-5-5-5-5-5--7-7-7-7-7-7-7-7-7-------------------------|

Chorus                                  Uhuh part
Your an orgasm addict, an orgasm addict.Uhuh.....Uhuh.....
G---------------------------------------------------------|
D---------------------------------------------------------|
A---------------------------------------------------------|
E--------3---5---7-------3---5---7------5-5-5-5--7-7-7-7--|

An orgasm addict, orgasm addict
G---------------------------------|
D---------------------------------|
A---------------------------------|
E--3---5---7------3---5---7-------|

Interlude
Your making out with schoolkids..........
G----------------------------------------|
D----------------------------------------|
A----------------------------------------|
E-5----------7---------------------------|

Progression
Intro x1
Verse 1 x1
Chorus x1
Uhuh part x3
Verse 2 x1
Chorus x1
Verse 3 x1
Chorus x1
Uhuh part x10
Interlude x8
Verse 4 x1
Chorus x1
Verse 5 x1
Chorus x3

END
            
Submit corrections

comments powered by Disqus
↑ Back to top | Buzzcocks Bass for Orgasm Addict. Lyrics for acoustic guitar and electric guitar. 1 Tablatures and chords are parodies/interpretations of the original songs. You may use it for private study, scholarship, research or language learning purposes only