» » »

Buzzcocks, Oh Shit! Tabs (ver.1)

Artists:  A B C D E F G H I J K L M N O P Q R S T U V W X Y Z # 

Oh Shit! Tabs (ver.1)

Buzzcocks Tabs
Rating:
0/5 (0 votes)
Oh Shit! lessons Tabs too difficult? Try these video lessons and learn fast
                                          THE BUZZCOCKS: Oh sh*t!

INTRO: A

   A
Oh sh*t I thought you and I were friends
   C
Oh sh*t I guess this is where our love ends
   D
Oh sh*t I thought things were goin well
C   D
But it hasnt turned out so swell
C   D
Has it
C  D
Oh sh*t
C  A
Oh sh*t pride comes before a fall
   C
Oh sh*t and once you lose one youve lost them all
   D
Oh sh*t I guess this times the time
C   D
And it seems youre no longer mine
C    D
Dont it
C  D
Oh sh*t
C  D
Oh sh*t


SOLO:
   D         C             A        C
e|-8-8-------8-8----8------8-8-10-8-10-8----8-----|
B|-----10-10-----10---10-----------------10---10--|
G|------------------------------------------------|
D|------------------------------------------------|
A|------------------------------------------------|
E|------------------------------------------------|

   D         C             A        C
e|-8-8-------8-8----8------8-8-10-8-10---|
B|-----10-10-----10---10-----------------|
G|---------------------------------------|
D|---------------------------------------|
A|---------------------------------------|
E|---------------------------------------|


   A
Oh sh*t I wish Id known before now
   C
Oh sh*t that you were such a cow
   D
Oh sh*t I wouldntve wasted my time
C  D
Oh sh*t chasin somethin which wasnt mine
C    D
Face it
C     D
Youre sh*t
C     A
Youre sh*t


SOLO:
   D         C             A        C
e|-8-8-------8-8----8------8-8-10-8-10-8----8-----|
B|-----10-10-----10---10-----------------10---10--|
G|------------------------------------------------|
D|------------------------------------------------|
A|------------------------------------------------|
E|------------------------------------------------|

   D         C             A        C
e|-8-8-------8-8----8------8-8-10-8-10---|
B|-----10-10-----10---10-----------------|
G|---------------------------------------|
D|---------------------------------------|
A|---------------------------------------|
E|---------------------------------------|


   A
Oh sh*t I wish Id known before now
   C   
Oh sh*t that you were such a f**kin cow
   D
Oh sh*t I wouldntve wasted my time
C  D
Oh sh*t chasin somethin which could never be mine
C D
Admit
C     D
Youre sh*t
C     D
Youre sh*t
C     D
Youre sh*t
C D   C D
Admit admit
C     D
Youre sh*t
C     D
Youre sh*t
C     D
Youre sh*t
C     D
Youre sh*t
C     D
Youre sh*t

C  D
            
Submit corrections

comments powered by Disqus
↑ Back to top | Buzzcocks Tabs for Oh Shit!. Lyrics for acoustic guitar and electric guitar. Tablatures and chords are parodies/interpretations of the original songs. You may use it for private study, scholarship, research or language learning purposes only