>
 >
Come Down

Come Down Guitar Tabs

Bush - Come Down chords, tabs, tablatures, lyrics

Guitar lessons | Add/correct | Request | Top 50 tabs Artists:  A B C D E F G H I J K L M N O P Q R S T U V W X Y Z 0-9

Come Down Guitar Tabs – Bush

CD, Sheet music, Poster

Do you like Come Down? Share with your friends now
TabsTabs v2
!!!!!!!!!!!!!!!!!!!!!!!!!!!!!!!!!!!!!!!!!!!!!!!!!!!!!!!!!!!!!!!!!!!!!!!!
!!note: if you download this tab, when you go to print it out, go into!!
!!windows and into the NOTEPAD, NOT WRITE, or anything else, print it !!
!!out on NOTEPAD or the tabliture will come out wierd.                !!
!!!!!!!!!!!!!!!!!!!!!!!!!!!!!!!!!!!!!!!!!!!!!!!!!!!!!!!!!!!!!!!!!!!!!!!!

This song isn't that easy when you add in all the rythm fills.  But if you
don't use the rythm fills, then it is pretty easy.  I will attempt to put
as many rythm fills in as I could. Oh, I've also posted the first bass
guitar riff because it is pretty cool. Have fun!

************
bass guitar
************

verse:  (it is the part that is played as soon the song starts)
is played during the verse while guitar plays all these little fills.
G |----------------------------------------|
D |----------------------------------------|play a lot of times
A |-----------0------------------4-3-2-0---|
E |---0-2-2-2---2-2-2--0-2-2-2-------------|

The rest of the song for bass is easily played.  The bass just plays the
same as what the guitar plays, it just plays the note of each chord being
played.  That simply means to play the top note of each chord.

*************
guitar parts
*************

*******
Guitar  starts at .48 seconds
*******
part one is played on .48 seconds, 1.58 minutes, 2.31 minutes,
3.47 minutes, and maybe some other parts that I missed.
E |---7-x-0-0-0-0-0---5-x-0-0-0-0-0---2-x-0-0-0-0-0---3-x-0-0-0-0-0---|
B |---7-x-0-0-0-0-0---5-x-0-0-0-0-0---2-x-0-0-0-0-0---3-x-0-0-0-0-0---|
G |---7-x-0-0-0-0-0---5-x-0-0-0-0-0---2-x-0-0-0-0-0---3-x-0-0-0-0-0---|
D |---9-x-9-9-9-9-9---7-x-7-7-7-7-7---4-x-4-4-4-4-4---5-x-5-5-5-5-5---|
A |---9-x-9-9-9-9-9---7-x-7-7-7-7-7---4-x-4-4-4-4-4---5-x-5-5-5-5-5---|
E |---7-x-7-7-7-7-7---5-x-5-5-5-5-5---2-x-2-2-2-2-2---3-x-3-3-3-3-3---|
play this a couple of times, once again, this is how I play it. the chords
are correct, but you can modify it to sound like however you want it to
sound.
chorus:
these are the chords for the chorus
D |--5--| A |--5--| G |--3--|
  |--5--|   |--5--|   |--3--|
  |--7--|   |--5--|   |--3--|
  |--7--|   |--7--|   |--5--|
  |--5--|   |--7--|   |--5--|
  |--5--|   |--5--|   |--3--|

chorus is D-A-G, that is it for the chorus
notations:
h=hammer on note
p=pull off note
v=vibrato
/\=bend (that is a gradual bend, bend up 1/2 step then bring it back down)
/=bend up 1/2 step

fill #1 (it starts at about .13 or .14 seconds into the song)
E |-----------------------------------------------------------------------|
B |--------------------------------/-\------------------------------------|
G |--------------11p9-------------11-11-9v--------------------------------|
D |--7h9-9-x-x-9-------7h9-9-x-x-9----------7h9-9-x-x-9-9-7h9--7h9-9-x-x-9|
A |-----------------------------------------------------------------------|
E |-----------------------------------------------------------------------|
   REMEMBER: IF YOU DON'T PRINT IT OUT ON THE NOTEPAD IN WINDOWS, THE
   BENDS AND NOTES AND CHORDS WILL NOT COME OUT LIKE THEY ARE SUPPOSED TO!
E |-----------------------------------------------------------------------|
B |-11-11-9v--7---7-x-x-7---9-7--7h9-9-x-x-9--11v-7---7-x-x-7---9-7--7h9-9|
G |-----------7h9-9-x-x-9---7-7--7---7-x-x-7------7h9-9-x-x-9---7-7--7---7|
D |-----------------------------------------------------------------------|
A |-----------------------------------------------------------------------|
E |-----------------------------------------------------------------------|

E |------------------------------------------------------------------------|
B |-x-x-9-7---7-x-x-7---9-7--7h9-9-x-x-9-11v--7---7-x-x-7--9-7--7h9-9-x-x--|
G |-x-x-7-7h9-9-x-x-9---7-7--7---7-x-x-7------7h9-9-x-x-9--7-7--7---7-x-x--|
D |------------------------------------------------------------------------|
A |------------------------------------------------------------------------|
E |------------------------------------------------------------------------|

Most of it is wrong, but it is close enough, work with timing and you can
add or take out what you want.  This is just what I play and it when I play
this song and it sounds good. Do what you want.
fill #2 at about 3.03 minutes in the song

the notes in the parenthesis, i am not sure how many times that you would
play those, work with it and figure it out
E |-----------------------------------------------------------------------|
B |-----------------------------------------------------------------------|
G |--11h12-12-x-x--9p7--11s12-x-x-14p12-12-9---(11-11h12--11-11h12--11----|
D |-----------------------------------------------------------------------|
A |-----------------------------------------------------------------------|
E |-----------------------------------------------------------------------|

E |-----------------------------------------------------------------------|
B |-----------------------------------------------------------------------|
G |--11h12--11 11h12)--12s14-16-14-12--9--11s12-12-14--12-11--9-9--11s12--|
D |-----------------------------------------------------------------------|
A |-----------------------------------------------------------------------|
E |-----------------------------------------------------------------------|

E |--------------------|
B |--------------------|
G |--12-14-12-11--7-7--|
D |--------------------|
A |--------------------|
E |--------------------|
Once again, it isn't perfect, but close enough to get by and sounds good,
if you don't like it, then just figure something to put in there by
yourself.  but if you work with it, i'm sure that it will turn out fine.
and if you do want to figure it out by yourself, then you could use the
notes above, those are the right notes but not correct order, but IT SOUNDS
FINE YOU COULD LEAVE IT!

*******
Lyrics
*******
love and hate get it wrong
she cut me right back down to size
sleep the day let it fade
who was there to take your place
no one knows never will
mostly me but mostly you
what do you say do you you
when it all comes down
i don't want to come back down from this cloud
taken me all this time to find out what i need
and i'm doing fine now
there is no blame only shame
when you beg you just complain
more i come more i try
all police are paranoid
so am i - so's the future
so are you - be a creature
what do you say do you do when it all comes down
i don't wnat ot come back down from this cloud
taken me all this time to find out what i need
****************************************************************************

that is it, if there is any suggestions or corrections, questions,
requests, or anything else, just e-mail me, or if you do make any
corrections or additions, then just post them. have a good time w/ the
song

if the tab bar lines didn't come out even then you printed it out wrong, and
try again





Comments


Popular Bush tabs & chords
The People That We Love 1 Bass Tabs
Out Of This World 1 Chords
Sixteen Stone Chords
Comedown (Acoustic) Tabs
Disease Of The Dancing Cat 1 Tabs
Space Travel Tabs
Spacetravel Tabs
Swallowed Remix Tabs
Warm Machine Tabs
People That We Love Ukulele


Song lyrics



↑ Back to top | Tablatures and chords are parodies/interpretations of the original songs. You may use it for private study, scholarship, research or language learning purposes only
© 2014 AZChords.com Contact us | Privacy policy | DMCA | Add/correct tabs | Request tabs | Top 50 tabs