» » »

Come Down Bass tabs (ver.2)

Artists:  A B C D E F G H I J K L M N O P Q R S T U V W X Y Z # 

Come Down Bass tabs (ver.2)

Bush
Rating:
4/5 (6 votes)

Hard to play? Try these video lessons and learn fast.
                #------------------------------------------------------------------------------##
                              "Comedown"
                     from "Sixteen Stone" by Bush

Here we go with another try at tabbing:

Intro & bridge:

            x3                x1
G:-||-----------------|-----------------||
D:-||---------0-0-----|---------2-2-0---||
A:-||-2-0-2-2-----2-2-|-2-0-2-2-------2-||
E:-||-----------------|-----------------||
Of course, subtle variations abound through the song, which really aren't
vital nor very noticeable but are there nonetheless...

I've racked my head with this for a strange reason:  in the guitar tab
version, this part in posted almost identically, except everything is
moved from the A&D strings to the E&A strings.  I've played along with
the CD with the bass and even a keyboard, and i can't shake the notion
that it should be played on the higher strings...so try it both ways and
decide which you think is right.

As for the chorus of the song, it's just:

G:-----------------|-----------------|-----------------|-----------------
D:-----------------|-----------------|-----------------|-----------------
A:-5-5-5-5-5-5-5-5-|-----------------|-----------------|-----------------
E:-----------------|-5-5-5-5-5-5-5-5-|-3-3-3-3-3-3-3-3-|-3-3-3-3-3-3-3-3-
Of course, you can let the first note ring or whatnot...I honestly can't
remember at this moment, and I'm not running up the stairs again to get 
the precise playing...:)

Well, try that first part out, and if you think I'm wrong, then just
change strings and ignore me.  :)  Actually, drop me a line and tell me
what you think about the intro, for my own piece of mind.



COME     BY BUSH 
    D
     O
      W
       N

I GOT THE BASIC PART OFF OF HERE BUT IT WAS KINDA WRONG SO HERE'S THE 
RIGHT VERSION PLAY AT LEAST 

G-------------
D-------------
A2-0-2-5-5-2-0
E-2-----------

YOU PLAY THIS PART OVER AND OVER UNTIL THE CHORUS WHICH GOES

G---------------------------------
D---------------------------------
A55555555-------------------------
E--------55555555-3333333333333333

I'D LIKE TO THANK OLLIEONE FOR POSTING THE CHORUS IN A PREVIOUS
VERSION

THIS IS A COOL ASS SONG IF YOU LIKE E-MAIL ME
            
Hard to play? Try these video lessons and learn fast. | Correct




comments powered by Disqus
↑ Back to top | Tablatures and chords are parodies/interpretations of the original songs. You may use it for private study, scholarship, research or language learning purposes only