» » »

Made In Japan Tabs (ver.2)

Artists:  A B C D E F G H I J K L M N O P Q R S T U V W X Y Z # 

Made In Japan Tabs (ver.2)

Buck Owens
Rating:
0/5 (0 votes)

Hard to play? Try these video lessons and learn fast.
                (Intro)


(Chords behind intro)
F  -  G minor/   C- F

                          Intro Part 1

    F                                                G Minor
/----13---13---13-----11--11--11----8-8-8-----6-6-------------\
/----13---13---13-----11--11--11----8-8-8-----6-6----8^6--8^8-\
/-------------------------------------------------------------\
/-------------------------------------------------------------\
/-------------------------------------------------------------\
/-------------------------------------------------------------\
                               Intro Part 2
    C                                                    F
/--8-8-8---5-5-5---3--5---8----5-3----5-3---1-------------------------\
/--8-8-8---5-5-5---3--5---8----5-3----5-3---1----6^6------------------\
/---------------------------------------------------------------------\
/---------------------------------------------------------------------\
/---------------------------------------------------------------------\
/---------------------------------------------------------------------\
            
Hard to play? Try these video lessons and learn fast. | Correct




comments powered by Disqus
↑ Back to top | Tablatures and chords are parodies/interpretations of the original songs. You may use it for private study, scholarship, research or language learning purposes only