» » »

Buck Owens, Made In Japan Tabs (ver.1)

Artists:  A B C D E F G H I J K L M N O P Q R S T U V W X Y Z # 

Made In Japan Tabs (ver.1)

Buck Owens Tabs
 Rating:
4/5 (4 votes)
Made In Japan lessons Tabs too difficult? Try these video lessons and learn fast
                F                                  G minor
My transistor radio comes from far away
C                                                        F
And when it's night over here over there it's a breaking day
F                                                G minor
I remember all the good times I had walking in the sand
C                                          F
With a beautiful girl that I met made in Japan

F                                            G minor
The beauty of her face was beyond my wildest dreams
C                                                            F
Like cherry blossoms blooming in the mountains in the early spring
F                                                      G minor
As we walked by the river and she softly took hold of my hand
C                                                   F
That's when I fell deep in love with a girl made in Japan
[guitar part, same as intro]


/-13-13-13---11-11-11---8-8-8--6-----------------------\
/-13-13-13---11-11-11---8-8-8--6---8^6--8^8------------\
/------------------------------------------------------\
/------------------------------------------------------\
/------------------------------------------------------\
/------------------------------------------------------\

/-8-8-8---5-5-5---3-5--8---5--3---5--3---1-------------\
/-8-8-8---5-5-5---3-5--8---5--3---5--3---1---6^6--------\
/--------------------------------------------------------\
/-------------------------------------------------- 3^3---\
/----------------------------------------------------------\
/-----------------------------------------------------------\


F sharp                                  G sharp minor
In the dark of night we would lay on Tokyo bay
C sharp                                              F sharp
And the singing of the birds woke us up at the break of day
F sharp                                    G sharp minor
Her smiling eyes always seemed to try to understand
C sharp                                     F sharp
All the love in my heart for the girl made in Japan

F sharp                          G sharp minor
My transistor radio comes from far away
C sharp                                               F sharp
And when it's night over here over there it's a breaking day
F sharp                                          G sharp minor
She cried when she said she'd been promised to another man
C sharp                                        F sharp
That's when I left my heart with the girl made in Japan
C sharp                                        F sharp
Yes my heart will always be with the girl made in Japan
            
Submit corrections

comments powered by Disqus
↑ Back to top | Buck Owens Tabs for Made In Japan. Lyrics for acoustic guitar and electric guitar. Tablatures and chords are parodies/interpretations of the original songs. You may use it for private study, scholarship, research or language learning purposes only