» » »

One Night Love Afair Bass tabs (ver.1)

Artists:  A B C D E F G H I J K L M N O P Q R S T U V W X Y Z # 

One Night Love Afair Bass tabs (ver.1)

Bryan Adams
Rating:
0/5 (0 votes)

Hard to play? Try these video lessons and learn fast.
                

Intro

|-----------------|-----------------|-----------------|-------------|
|-----------------|-----------------|-----------------|-------------|
|-----------------|-7-7-------------|-----------------|-7-7---------|
|-7-7-------------|-----------------|-7-7-------------|-------------|

Verse
|-----------------|-----------------|-----------------|-------------|
|-----------------|-----------------|-----------------|-------------|
|-----------------|-7-7-7-7-7-7-7-7-|-----------------|-7-7-7-7-7-7-|
|-7-7-7-7-7-7-7-7-|-----------------|-7-7-7-7-7-7-7-7-|-------------|

|-----------------|-----------------|-----------------|-------------|
|-----------------|-----------------|-----------------|-------------|
|-----------------|-----------------|-----------------|-------------|
|-7-7-7-7-7-7-7-7-|-4-4-4-4-4-4-4-4-|-2-2-2-2-2-2-2-2-|-0-0-0-0-0-0-|

Chorus
|-----------------|-----------------|-----------------|-------------|
|o----------------|-----------------|-----------------|-------------|
|o5-----5-----5---|-4-----4-----4---|-2-----2----2----|-------------|
|-----------------|-----------------|-----------------|-3-----3--5--|
            
Hard to play? Try these video lessons and learn fast. | Correct




comments powered by Disqus
↑ Back to top | Tablatures and chords are parodies/interpretations of the original songs. You may use it for private study, scholarship, research or language learning purposes only