» » »

Bryan Adams, Please Forgive Me Tabs (ver.1)

Artists:  A B C D E F G H I J K L M N O P Q R S T U V W X Y Z # 

Please Forgive Me Tabs (ver.1)

Bryan Adams Tabs
 Rating:
4/5 (4 votes)
Please Forgive Me lessons Tabs too difficult? Try these video lessons and learn fast
1
                ***notes***
P  - pull off.	
H  - hammer on.
s  - slide.
 )\  - bend and release     
/  \
*(guitar 2)=elc guitar effect/distortion
*(guitar 1)=elc clean
*in this tab ,keyboard tabed to guitar
*u must hear the song to figure out timing

intro:
|(guitar 1  )|(keyboard)   |(guitar 2...intro solo)        
|------------|-5-4-5-0-----|--7s9---9p7--7---7-9-7-5-----------7s9-7-5-7s9-|
|----0-----0-|-------------|-----------10-----------7---7p5-7p5------------|
|---2----2---|-------------|-----------------------------------------------|
|-2----0-----|-------------|-----------------------------------------------|
|------------|-------------|-----------------------------------------------|
|------------|-------------|-----------------------------------------------|

 (verse 1)      
                                       A
It still feels like our first night together
E                  F#M  
Feels like the first kiss, and it\'s getting better, baby
E      
No one can better this
A                         E     
You\'re still holding on, you\'re still the one   
(guitar 2)	
e|-----------------------5s7-9-|
B|-----------------------------|
 
A                   E          
First time our eyes met  
(guitar 2)                    )\
e|--------------------------7/--\-|
B|--------------------------------|

	C#7
Same feeling I get
(guitar 2)
e|---------------------9p7-5|	
B|--------------------------|

F#m               E
Only feels much stronger
C#7(b9)
I wanna love you longer
A                        E
You still turn the fire on?


A	  F#m     A	    D
So if you're feeling lonely, don't
(keyboard)
e|-------------------------------------5-4-5-0--5-4-5--|	
B|---------------------------------------------------3-|					   

A                            E         
You're the only one I'll ever want
F#m		A      D
I only want to make it good
(keyboard)
e|-------------------------------------5-4-5-0--5-4-5--|	
B|---------------------------------------------------3-|					
         
 E                   F#m     A      D
So if I love you a little more than I should ...

A		   E/A                A
Please forgive me, I know not what I do

F#m		   E/F#		     F#m
Please forgive me, I can't stop loving you

D		  E/D                     D
Don't deny me, this pain I'm going through

A             E/A                A
Please forgive me, if I need you like I do

E      D/E     		     E
Please believe me , every word I say is true

D              A             E
Please forgive me, I can't stop loving you


|(guitar 2)        
|--7s9---9p7--7---7-9-7-5-----------7s9---------|
|----------10------------7---7p5-7p5------------|
|-----------------------------------------------|
|-----------------------------------------------|
|-----------------------------------------------|
|-----------------------------------------------|

(verse 2 ..use the same chords and guitar lines in verse 1) 
         
         Still feels like our best times are together
         Feels like the first touch
         Still getting closer baby
         Can't get closer enough
         Still holding on
         You're still number one
         I remember the smell of your skin
         I remember everything
         I remember all the moves
         I remember you yeah
         I remember the nights, you know I still do

         So if you're feeling lonely, don't
         You're the only one I'll ever want
         I only want to make it go
         So if I love you a little more than I should ...

         Please forgive me, I know not what I do
         Please forgive me, I can't stop loving you
         Don't deny me, this pain I'm going through
         Please forgive me, if I need you like I do
         Please believe me (Oh believe it), every word I say is true
         Please forgive me, I can't stop loving you

Guitar solo(guitar 2)                  )\                   )\     )\     )\
e|-----9-7---------7--7-5-7-7s9-7-|-12/  \9-7---------5-7-9/  \-12/  \-14/  \-14-12-----------|
B|--------10-9-10-----------------|----------10-9-10-------------------------------15141514-12|
 |---------------7----------------|-----------------7-----------------------------------------|

 				  
         
E
The one thing I'm sure of
A					
Is the way we make love
(guitar 2)	                     )\
e|--------------------------------14/  \-------|
B|--------------------------------------141214-|
         
         E
         The one thing I depend on
	 A				
         Is for us to stay strong

(guitar 2)                                       )\
e|--------------------------------------------14/  \----|
B|---------------------------------------------------15-|	
         With every word and every breath I'm pray - ing
(guitar 2)                                       
e|--------------------------------------------------------7h9-5---|
B|----------------------------------------------------------------|	

		    E
         That's why I'm saying

	   B          F#/B		 B
         Please forgive me, I know not what I do
         G#m        F#/G# 			G#m
         Please forgive me, I can't stop loving you
	 E             F#/E			E
         Don't deny me, this pain I'm going through
		B	      F#/B		B
         Please forgive me, if I need you like I do
		     F#		E/F#		F#
         Babe believe me, every word I say is true
	   E         B	       F#/B
         Please forgive me, if I can't stop loving you
	B	  F#		E/F#	   F#
         Never leave me, I don't know what I'd do
	   E         B	   F#			E
         Please forgive me, I can't stop loving you
	 B
         I can't stop ... loving you ...

*********************************************************************
            
Submit corrections

comments powered by Disqus
↑ Back to top | Bryan Adams Tabs for Please Forgive Me. Lyrics for acoustic guitar and electric guitar. 1 Tablatures and chords are parodies/interpretations of the original songs. You may use it for private study, scholarship, research or language learning purposes only