>
 >
Cloud Number Nine

Cloud Number Nine Guitar Tabs

Bryan Adams - Cloud Number Nine chords, tabs, tablatures, lyrics

Guitar lessons | Add/correct | Request | Top 50 tabs Artists:  A B C D E F G H I J K L M N O P Q R S T U V W X Y Z 0-9

Cloud Number Nine Guitar Tabs – Bryan Adams

CD, Sheet music, Poster

Do you like Cloud Number Nine? Share with your friends now
ChordsChords v2Chords v3Chords v4TabsUkulele
-------------------------------------------------------------------------------
			     Cloud number nine-Bryan Adams
-------------------------------------------------------------------------------

There are 2 versions of this song, one is techno-like, and one like given below. We have tried
to tab every note we could hear, but it’s possible that we could have missed out a few 
r 2 guitars used in the song-One plays the rhythm chords and the other plays the riffs given.

h=hammer on
p=pull off
fb=full bend
hb=half bend
r=release
x=muted note
s=slide
~=let ring
v=vibrato

Tuning: Standard
Riff A
e|-------2-----3----2------2---------2-----3-----2------2------------------|
B|----3-----3-----------3--------3-------3-----------3---------------------|
G|-------------------------------------------------------------------------|
D|-------------------------------------------------------------------------|
A|-------------------------------------------------------------------------|
E|-------------------------------------------------------------------------|


Riff B
e|-----------3--------------------0------------------------------------------|
B|-----3--------3------2-----3-----------------------------------------------|
G|--0-----0------------------------------------------------------------------|
D|---------------------------------------------------------------------------|
A|---------------------------------------------------------------------------|
E|---------------------------------------------------------------------------|


Verse 1
D
Clue number one was when you knocked on my door
G
Clue number two was the look that you wore
A
That’s when I knew it was a pretty good sign
G				D
Something was wrong upon cloud number nine (intro riff is played once)

Pre chorus
                A		         G                 Riff A
Well it’s a long way up and we won’t come down tonight
               A                    G                 Riff B
Well it may be wrong but baby it sure feels right

Chorus
                 D
Cause the moon is up and the stars are bright
G
And whatever comes gonna be alright
A		                 G
Cause tonight you will be mine
D
Upon cloud number nine

         D
And there ain’t no place that it rather be
  G
And we can’t go back but you here with me
A             	            G
Yeah the weather is really fine
     D
Upon cloud number nine


Verse 2 (chords are the same)
Now he hurt you and you hurt me
And that wasn't the way it was supposed to be
So baby tonight let's leave the world behind
And spend sometime up on cloud number nine  (Play intro riff once)

Pre Chorus:
Well it's a long way up and we won't come down tonight (Riff A)
Well it maybe wrong but baby it sure feels right (Riff B)

Chorus:
And the moon is up and the stars are bright
And whatever comes gonna be alright
Cause tonight you will be mine
Up on cloud number nine
And there ain't no place that I rather be
And we can't go back but you're here with me
Yeah the weather is really fine
Up on cloud number nine


SOLO (Chords played are D and A)
e|-------------------9-9hbr--------------------------------------------------|
B|------------10~---------------12----10fb~----------------------------------|
G|-9---h11p9-----------------------------------------------------------------|
D|---------------------------------------------------------------------------|
A|---------------------------------------------------------------------------|
E|---------------------------------------------------------------------------|

e|--9-9hbr----------------10-------------------------------------------------|
B|----------12---10hb~--------x----------------------------------------------|
G|--------------------------------x------------------------------------------|
D|------------------------------------11hb-----------------------------------|
A|---------------------------------------------------------------------------|
E|---------------------------------------------------------------------------|

Riff C
e|------------------|
B|------------------|
G|------------------|
D|--11s14~----------|
A|------------------|
E|------------------|


Riff D
e|-------------------------------|
B|--8s10---10fb------------------|
G|-------------------------------|
D|-------------------------------|
A|-------------------------------|
E|-------------------------------|

Riff E
e|---------10--------------|
B|---10fb------10r---------|
G|-------------------------|
D|-------------------------|
A|-------------------------|
E|-------------------------|

Riff F
e|-10-----------------------------------------|
B|----10--------------------------------------|
G|--------11---12hbr---11~--------------------|
D|--------------------------------------------|
A|--------------------------------------------|
E|--------------------------------------------|

Riff G                                                       Riff H
e|---------------|-------------------------|
B|--8---8s10~----|------10br---------------|
G|---------------|-------------------------|
D|---------------|-------------------------|
A|---------------|-------------------------|
E|---------------|-------------------------|

Riff I
e|----------------------------------------|
B|----19-x--------------------------------|
G|----18-x--------------------------------|
D|----------17h19p17---16-----------------|
A|----------------------------------------|
E|----------------------------------------|

     A
Well we'won't come down tonight (Riff C)
     A
Yeah we won't come down tonight
     A
No we won't come down tonight.....


And the moon is up and the stars are bright (Riff D)
And whatever comes gonna be alright
Cause tonight (Riff E)
you will be mine
Up on cloud number nine (Riff F)

And there ain't no place that I rather be (Riff G )
And we can't go back but you're here with me (Riff H)
Yeah the weather is really fine
Up on cloud number nine  Riff I

 A          G	       A
We can watch the world go by
 	G             D
Up on cloud number nine


e|--10------------------------------------|
B|-----10---7--8--7-----------------------|
G|--------------------9---7fbrv-----------|
D|----------------------------------------|
A|----------------------------------------|
E|----------------------------------------|

                                       And that’s all………………………….





Comments


Popular Bryan Adams tabs & chords
Flying 2 Chords
Heaven 1 Chords
It Aint A Part If You Cant Come Home Chords
Sound The Bugle Chords
Do I Have To Say The Words? Tabs
One Night Love Affair Tabs
Please Forgive Me 5 Tabs
Walking After Midnight Tabs
Here I Am Ukulele
Star Ukulele


Song lyrics



↑ Back to top | Tablatures and chords are parodies/interpretations of the original songs. You may use it for private study, scholarship, research or language learning purposes only
© 2014 AZChords.com Contact us | Privacy policy | DMCA | Add/correct tabs | Request tabs | Top 50 tabs