» » »

Bruno Mars, Billionaire Tabs (ver.1)

Artists:  A B C D E F G H I J K L M N O P Q R S T U V W X Y Z # 

Billionaire Tabs (ver.1)

Bruno Mars Tabs
 Rating:
4/5 (4 votes)
Billionaire lessons Tabs too difficult? Try these video lessons and learn fast
                

Tuning:Standard


Intro
e|-------------------------------------------------------------------------|
B|----5-s-5-5-s-5------9--s-9--9--s-9------10-s-10-10-s-10-----7-s-7-7-s-7-|
G|----6-s-6-6-s-6------10-s-10-10-s-10-----11-s-11-11-s-11-----9-s-9-9-s-9-|2x
D|----7-s-7-7-s-7------9--s-9--9--s-9------11-s-11-11-s-11-----9-s-9-9-s-9-|
A|----7-s-7-7-s-7------11-s-11-11-s-11-----9--s-9--9--s-9------7-s-7-7-s-7-|
E|-5--5-s-5-5-s-5-/-7--9--s-9--9-s-99---9--9--s-9--9--s-9---7--7-s-7-7-s-7-|

Chorus
e|------------------------------------------|
B|----5-s-5------7-s-7------10-s-10-10-s-10-|
G|----7-s-7------9-s-9------11-s-11-11-s-11-|2x
D|----7-s-7------9-s-9------11-s-11-11-s-11-|
A|----5-s-5------7-s-7------9--s-9--9--s-9--|
E|-5--5-s-5-/-7--7-s-7---9--9--s-9--9--s-9--|

e|-----------------------------------------------------------------------------|
B|----5-s-5-----7-s-7-----12-----11----10----7-----5-s-5-5-s-5-----4-s-4-4-s-4-|
G|----7-s-7-----9-s-9-----14-----13----11----9-----7-s-7-7-s-7-----6-s-6-6-s-6-|
D|----7-s-7-----9-s-9-----14-----13----11----9-----7-s-7-7-s-7-----6-s-6-6-s-6-|
A|----5-s-5-----7-s-7-----12-----11----19----7-----5-s-5-5-s-5-----4-s-4-4-s-4-|
E|-5--5-s-5--7--7-s-7--12-----11-----9-----7----5--5-s-5-5-s-5--4--4-s-4-4-s-4-|

Verse
e|-5-x-5-x-5-x-5---9--x-9--x-9--x-9----9--x-9--x-9--x-9----7-x-7-x-7-x-7-|
B|-5-x-5-x-5-x-5---9--x-9--x-9--x-9----10-x-10-x-10-x-10---7-x-7-x-7-x-7-|
G|-6-x-6-x-6-x-6---10-x-10-x-10-x-10---11-x-11-x-11-x-11---9-x-9-x-9-x-9-|(3x)
D|-7-x-7-x-7-x-7---9--x-9--x-9--x-9----11-x-11-x-11-x-11---9-x-9-x-9-x-9-|
A|-7-x-7-x-7-x-7---11-x-11-x-11-x-11---9--x-9--x-9--x-9----7-x-7-x-7-x-7-|
E|-5-x-5-x-5-x-5---9--x-9--x-9--x-9----9--x-9--x-9--x-9----7-x-7-x-7-x-7-|

Chorus
e|-5~---7~---9--x-9--x-9--x-9--|
B|-5~---7~---10-x-10-x-10-x-10-|
G|-7~---9~---11-x-11-x-11-x-11-|2x
D|-7~---9~---11-x-11-x-11-x-11-|
A|-5~---7~---9--x-9--x-9--x-9--|
E|-5~---7~---9--x-9--x-9--x-9--|

e|-5~---7~---12---11---9----7---5-x-5-x-5-x-5---4-x-4-x-4-x-4-|
B|-5~---7~---12---11---10---7---5-x-5-x-5-x-5---4-x-4-x-4-x-4-|
G|-7~---9~---14---13---11---9---7-x-7-x-7-x-7---6-x-6-x-6-x-6-|
D|-7~---9~---14---13---11---9---7-x-7-x-7-x-7---6-x-6-x-6-x-6-|
A|-5~---7~---12---11---9----7---5-x-5-x-5-x-7---4-x-4-x-4-x-4-|
E|-5~---7~---12---11---9----7---5-x-5-x-5-x-7---4-x-4-x-4-x-4-|

e|-2-x-2---5-x-5---7-x-7-x-7-x-7--|
B|-2-x-2---5-x-5---7-x-7-x-7-x-7--|
G|-3-x-3---6-x-6---7-x-7-x-7-x-7--|2x
D|-4-x-4---7-x-7---9-x-9-x-9-x-9--|
A|-4-x-4---7-x-7---9-x-9-x-9-x-9--|
E|-2-x-2---5-x-5---7-x-7-x-7-x-7--|

Verse
e|-5----9------9--x-9--x-9--x-9----7-x-7-x-7-x-7-|
B|-5----9------10-x-10-x-10-x-10---7-x-7-x-7-x-7-|
G|-6----10-----11-x-11-x-11-x-11---9-x-9-x-9-x-9-|
D|-7----9------11-x-11-x-11-x-11---9-x-9-x-9-x-9-|
A|-7----11-----9--x-9--x-9--x-9----7-x-7-x-7-x-7-|
E|-5----9------9--x-9--x-9--x-9----7-x-7-x-7-x-7-|

e|-5-x-5-x-5-x-5---9--x-9--x-9--x-9----9--x-9--x-9--x-9----7-x-7-x-7-x-7-|
B|-5-x-5-x-5-x-5---9--x-9--x-9--x-9----10-x-10-x-10-x-10---7-x-7-x-7-x-7-|
G|-6-x-6-x-6-x-6---10-x-10-x-10-x-10---11-x-11-x-11-x-11---9-x-9-x-9-x-9-|2x
D|-7-x-7-x-7-x-7---9--x-9--x-9--x-9----11-x-11-x-11-x-11---9-x-9-x-9-x-9-|
A|-7-x-7-x-7-x-7---11-x-11-x-11-x-11---9--x-9--x-9--x-9----7-x-7-x-7-x-7-|
E|-5-x-5-x-5-x-5---9--x-9--x-9--x-9----9--x-9--x-9--x-9----7-x-7-x-7-x-7-|

Intro
e|-------------------------------------------------------------------------|
B|----5-s-5-5-s-5------9--s-9--9--s-9------10-s-10-10-s-10-----7-s-7-7-s-7-|
G|----6-s-6-6-s-6------10-s-10-10-s-10-----11-s-11-11-s-11-----9-s-9-9-s-9-|2x
D|----7-s-7-7-s-7------9--s-9--9--s-9------11-s-11-11-s-11-----9-s-9-9-s-9-|
A|----7-s-7-7-s-7------11-s-11-11-s-11-----9--s-9--9--s-9------7-s-7-7-s-7-|
E|-5--5-s-5-5-s-5-/-7--9--s-9--9-s-99---9--9--s-9--9--s-9---7--7-s-7-7-s-7-|

Chorus
e|-5~---7~---9--x-9--x-9--x-9--|
B|-5~---7~---10-x-10-x-10-x-10-|
G|-7~---9~---11-x-11-x-11-x-11-|2x
D|-7~---9~---11-x-11-x-11-x-11-|
A|-5~---7~---9--x-9--x-9--x-9--|
E|-5~---7~---9--x-9--x-9--x-9--|

e|-5~---7~---12---11---9----7---5-x-5-x-5-x-5---4-x-4-x-4-x-4-|
B|-5~---7~---12---11---10---7---5-x-5-x-5-x-5---4-x-4-x-4-x-4-|
G|-7~---9~---14---13---11---9---7-x-7-x-7-x-7---6-x-6-x-6-x-6-|
D|-7~---9~---14---13---11---9---7-x-7-x-7-x-7---6-x-6-x-6-x-6-|
A|-5~---7~---12---11---9----7---5-x-5-x-5-x-7---4-x-4-x-4-x-4-|
E|-5~---7~---12---11---9----7---5-x-5-x-5-x-7---4-x-4-x-4-x-4-|

e|-2-x-2---5-x-5---7-x-7-x-7-x-7--|
B|-2-x-2---5-x-5---7-x-7-x-7-x-7--|
G|-3-x-3---6-x-6---7-x-7-x-7-x-7--|2x
D|-4-x-4---7-x-7---9-x-9-x-9-x-9--|
A|-4-x-4---7-x-7---9-x-9-x-9-x-9--|
E|-2-x-2---5-x-5---7-x-7-x-7-x-7--|

last part
e|-5~--9-~-|
B|-5~--9-~-|
G|-6~--10~-|
D|-7~--9-~-|
A|-7~--11~-|
E|-5~--9-~-|


~ - vibrato 
s - slap down
x - palm mute
            
Submit corrections

comments powered by Disqus
↑ Back to top | Bruno Mars Tabs for Billionaire. Lyrics for acoustic guitar and electric guitar. Tablatures and chords are parodies/interpretations of the original songs. You may use it for private study, scholarship, research or language learning purposes only