» » »

Bruno Mars, Runaway Baby Bass tabs (ver.1)

Artists:  A B C D E F G H I J K L M N O P Q R S T U V W X Y Z # 

Runaway Baby Bass tabs (ver.1)

Bruno Mars Tabs
 Rating:
4/5 (4 votes)
Runaway Baby lessons Tabs too difficult? Try these video lessons and learn fast
1
                Intro and Verse

G|------8-6-8---------------------------------------------------------------|
D|--------------7-66-------686----------------------------------------------|
A|---6----------------9----------9------------------------------------------|
E|--------------------------------------------------------------------------|


Chorus

G|--------------------------------------------------------------------------|
D|--------------------------------------------------------------------------|
A|--------------------66666666----------------------------------------------|
E|77777777--66666666-------------44444444-----------------------------------|

End Of Chorus

G|--------------------------------------------------------------------------|
D|--------------------------------------------------------------------------|
A|----------6---------------------------------------------------------------|
E|-7-7-7-7------------------------------------------------------------------|

Verse #2

G|--------------------------------------------------------------------------|
D|----------456-------------------------------------------------------------|
A|---456--6-----------------------------------------------------------------|
E|-6------------------------------------------------------------------------|

That is everything, pretty simple actually.  Listen to the song to get the tempo/rhythm.
            
Submit corrections

comments powered by Disqus
↑ Back to top | Bruno Mars Bass for Runaway Baby. Lyrics for acoustic guitar and electric guitar. 1 Tablatures and chords are parodies/interpretations of the original songs. You may use it for private study, scholarship, research or language learning purposes only