» » »

We Are Paramount Tabs (ver.1)

Artists:  A B C D E F G H I J K L M N O P Q R S T U V W X Y Z # 

We Are Paramount Tabs (ver.1)

Broadway
Rating:
0/5 (0 votes)

Hard to play? Try these video lessons and learn fast.
                
 INTRO
|------------------------------------------------------|
|-------9------6-6-------------------------------------|
|-------9------9-9-10101010101010101212121212121212----|
|------------------8-8-8-8-8-8-8-8-1010101010101010----|
|-007/3---07/3-----8-8-8-8-8-8-8-8-1010101010101010----| (2x)
|-007/3---07/3-----8-8-8-8-8-8-8-8-1010101010101010----|

|------------------------|
|------------------------|
|------------------------|
|------------------------|
|-00000-00000-0-0-00000--| (2x)
|-00000-00000-0-0-00000--|
  ..... ..... . . .....
|---------------------------------------------------------------------------|
|-------6------6-6-6-----6------6-6-6-----6------6-6------------------------|
|-------9------9-9-9-----9------9-9-9-----9------9-9------------------------|
|---------------------------------------------------888888881010101010101010|
|-007/3---07/3------07/3---07/3------07/3---07/3----888888881010101010101010|
|-007/3---07/3------07/3---07/3------07/3---07/3----888888881010101010101010|

|---------------------------------------------------------------------------|
|------6-----6----------6-----6----------6-----6----------------------------|
|------9-----9----------9-----9----------9-----9----------------------------|
|-----------------------------------------------888888881010101010101010----|
|-07/3--07/3--5/7--07/3--07/3--5/7--07/3--07/3--888888881010101010101010----|
|-07/3--07/3--5/7--07/3--07/3--5/7--07/3--07/3--888888881010101010101010----|

 CHORUS
|--------------------------------------|
|--------------------------------------|
|--------------------------------------|
|-88888888-55555555-00000000-33333333--|
|-88888888-55555555-00000000-33333333--| (4x)
|-88888888-55555555-00000000-33333333--|

 VERSE
|-----------------|----------------------------------------------------|
|-----------------|----------------------------------------------------|
|-----------------|-12/14-------12-------9/10------7----9----10-----17-|
|-7~------7~------|----------------------------------------------------|
|-7~------7~------|-10/12-------10-------7/8-------5----7----8------15-|(2x) 
|-7~------7~------|----------------------------------------------------|

 CHORUS

 VERSE
|---------|----------------------------------|      |-----------------------|
|---------|----------------------------------|      |-----------------------|
|---------|----------------------------------|      |-----------------------|
|-8~------|----------------------------------|      |-8~---------0~---------|
|-8~------|-8-(16X)-0-(16X)-3-(16X)-5-(16X)--| (2X) |-8~---------0~---------|
|-8~------|-8-------0-------3-------5--------|      |-8~---------0~---------|
            .       .       .       .

 Play the same as the VERSE without palm muting

|---------------------------------------------------|
|---------------------------13brb-9brb-6brb-4brb/---|
|---------------------------------------------------|
|--------33----3----3-------------------------------|
|-0-0000-77-0007-0007--(4x)-------------------------|
|-0-0000----000--000--------------------------------|
    ....    ...  ...

 Repeat that, then play:
 BREAKDOWN
|--------------------------|
|--------------------------|
|--------------------------|
|--------------------------|
|-0-00000-0-0-00000-00000--| (4x)
|-0-00000-0-0-00000-00000--|



************************************

| /   slide 
| ~   vibrato
| .   Mute note
| brb Bend release bend

************************************
            
Hard to play? Try these video lessons and learn fast. | Correct




comments powered by Disqus
↑ Back to top | Tablatures and chords are parodies/interpretations of the original songs. You may use it for private study, scholarship, research or language learning purposes only