» » »

Britt Nicole, Set The World On Fire Tabs (ver.2)

Artists:  A B C D E F G H I J K L M N O P Q R S T U V W X Y Z # 

Set The World On Fire Tabs (ver.2)

Britt Nicole Tabs
Rating:
5/5 (9 votes)
Set The World On Fire lessons Tabs too difficult? Try these video lessons and learn fast
                Standard tuning.
Capo on 4th Fret.

Intro/Verse

-------------------------------------------------|
--------3----------3----------3----------3-------|
------0---0------0---0------0---0------0---0-----|
-------------------------2----------0------------|
--------------3----------------------------------|
---3---------------------------------------------|


Chorus

( ) = hammer on

    G       D     C     C
----3-------2(3)--3-----3------|
----3-------3-----3-----3------|
----0-------2-----0-----0------|
----0-------0-----2-----0------|
----2-------0-----3-----3------|
----3--------------------------|


INTRO/VERSE

I wanna set the world on fire
Until it’s burning bright for You
It’s everything that I desire
Can I be the one You use?
---------------
I, I am small but
You, You are big enough
I, I am weak but
You, You are strong enough to
--------------------------
G          D
Take my dreams
C
Come and give them wings
G         D
Lord with You
C
There’s nothing I can not do
----------------------------
INTRO/VERSE

Nothing I cannot do

I wanna feed the hungry children
And reach across the farthest land
And tell the broken there is healing
And mercy in the Father’s hands
------------------------------
I, I am small but
You, You are big enough
I, I am weak but
You, You are strong enough to
---------------------------
G          D
Take my dreams
C
Come and give them wings
G         D
Lord with You
C
There’s nothing I can not do           X2
------------------------------
Em       C
My hands my feet
G         D
My everything
Em        C
My life, my love
G         D
Lord, use me
--------------------------
INTRO/VERSE

I wanna set the world on fire
I wanna set the world on fire, yeah
-----------------------------------
G          D
Take my dreams
C
Come and give them wings
G         D
Lord with You
C
There’s nothing I can not do          X2
--------------------------------
INTRO/VERSE

Nothing I can not do,

I’m gonna set the world on fire
Set the world on fire
            

comments powered by Disqus
↑ Back to top | Britt Nicole Tabs for Set The World On Fire. Lyrics for acoustic guitar and electric guitar. Tablatures and chords are parodies/interpretations of the original songs. You may use it for private study, scholarship, research or language learning purposes only